Digno Y sANTO

Chords

01234567891011121314151617181920212223
E
B
G
D
A
E
B
0 1 2 3 4 5 6 7 8 9 10 11 12 13 14 15 16 17 18 19 20 21 22 23
(/) Slide Up  (\) Slide Down  (h) Hammer On  (p) Pull Off  (b) Bend (r) Release (v) Vibrato

Stave 1:

E|--------------------------------------------------------
B|-----9--------9--7-----7-----9--7-----7-----9--5-----5--
G|--------9-----------7--------------7--------------6-----
D|--9-----------------------------------------------------
A|--------------------------------------------------------
E|--------------------------------------------------------

Stave 2:

E|--------------------------------------------------------
B|-----9--------9--7-----7-----9--7-----7-----9--5-----5--
G|--9-----9-----------7--------------7--------------6-----
D|--------------------------------------------------------
A|--------------------------------------------------------
E|--------------------------------------------------------

Stave 3:

E|--------------------------------------------------------
B|--------9-----------7-----------7-----9--5-----5--------
G|-----9-----------7-----------7--------------6-----------
D|--9-----------9-----------7-----------------------------
A|--------------------------------------------------------
E|--------------------------------------------------------

Stave 4:

E|--------------------------------------------------------
B|--------9-----------7-----------7-----9--5-----5--------
G|-----9-----------7-----------7--------------6-----------
D|--9-----------9-----------7-----------------------------
A|--------------------------------------------------------
E|--------------------------------------------------------

Stave 5:

E|---------------------------------------------------------
B|---------------------7-----------7--------5-----5--------
G|--5h7/9-----------7-----------7--------------6-----------
D|---------------9-----------7-----------------------------
A|---------------------------------------------------------
E|---------------------------------------------------------

							http://www.guitartabcreator.com
{"title":"","strings":[[[".",".",".","_",".",".",".",".","_",".",".",".",".","_",".",".",".","."],[".",9,".","_",9,7,".",7,"_",9,7,".",7,"_",9,5,".",5],[".",".",9,"_",".",".",7,".","_",".",".",7,".","_",".",".",6,"."],[9,".",".","_",".",".",".",".","_",".",".",".",".","_",".",".",".","."],[".",".",".","_",".",".",".",".","_",".",".",".",".","_",".",".",".","."],[".",".",".","_",".",".",".",".","_",".",".",".",".","_",".",".",".","."]],[[".",".",".","_",".",".",".",".","_",".",".",".",".","_",".",".",".","."],[".",9,".","_",9,7,".",7,"_",9,7,".",7,"_",9,5,".",5],[9,".",9,"_",".",".",7,".","_",".",".",7,".","_",".",".",6,"."],[".",".",".","_",".",".",".",".","_",".",".",".",".","_",".",".",".","."],[".",".",".","_",".",".",".",".","_",".",".",".",".","_",".",".",".","."],[".",".",".","_",".",".",".",".","_",".",".",".",".","_",".",".",".","."]],[[".",".",".","_",".",".",".","_",".",".",".","_",".",".",".",".","_","_"],[".",".",9,"_",".",".",7,"_",".",".",7,"_",9,5,".",5,"_","_"],[".",9,".","_",".",7,".","_",".",7,".","_",".",".",6,".","_","_"],[9,".",".","_",9,".",".","_",7,".",".","_",".",".",".",".","_","_"],[".",".",".","_",".",".",".","_",".",".",".","_",".",".",".",".","_","_"],[".",".",".","_",".",".",".","_",".",".",".","_",".",".",".",".","_","_"]],[[".",".",".","_",".",".",".","_",".",".",".","_",".",".",".",".","_","_"],[".",".",9,"_",".",".",7,"_",".",".",7,"_",9,5,".",5,"_","_"],[".",9,".","_",".",7,".","_",".",7,".","_",".",".",6,".","_","_"],[9,".",".","_",9,".",".","_",7,".",".","_",".",".",".",".","_","_"],[".",".",".","_",".",".",".","_",".",".",".","_",".",".",".",".","_","_"],[".",".",".","_",".",".",".","_",".",".",".","_",".",".",".",".","_","_"]],[[".",".",".",".",".","_","_",".",".",".","_",".",".",".","_","_",".",".",".","_","_"],[".",".",".",".",".","_","_",".",".",7,"_",".",".",7,"_","_",5,".",5,"_","_"],[5,"h",7,"/",9,"_","_",".",7,".","_",".",7,".","_","_",".",6,".","_","_"],[".",".",".",".",".","_","_",9,".",".","_",7,".",".","_","_",".",".",".","_","_"],[".",".",".",".",".","_","_",".",".",".","_",".",".",".","_","_",".",".",".","_","_"],[".",".",".",".",".","_","_",".",".",".","_",".",".",".","_","_",".",".",".","_","_"]]],"numberofstrings":6,"notes":["E","B","G","D","A","E","B"],"capo":0,"stringnotes":["E4","B3","G3","D3","A2","E2"],"comments":["Stave 1:","Stave 2:","Stave 3:","Stave 4:","Stave 5:"],"timing":[["W","W","W",null,"W","W","W","W",null,"W","W","W","W",null,"W","W","W","W"],["W","W","W",null,"W","W","W","W",null,"W","W","W","W",null,"W","W","W","W"],["W","W","W",null,"W","W","W",null,"W","W","W",null,"W","W","W","W"],["W","W","W",null,"W","W","W",null,"W","W","W",null,"W","W","W","W"],["W",null,"W",null,"W","W","W","W","W","W","W","W","W","W","W","W","W","W","W"]],"timingvisible":false,"tabcounter":21,"stave":4,"totalstaves":5,"instrument":"6guitar","selectedtuning":"6_standard","version":"13"}

Member for

3 years 1 month
Submitted by GuitarRiffs TV on Fri, 2017-09-29 18:50