Sound will begin in 5 seconds

sr project song

Chords
01234567891011121314151617181920212223
E
B
G
D
A
E
B
0 1 2 3 4 5 6 7 8 9 10 11 12 13 14 15 16 17 18 19 20 21 22 23
Song Science #1: How Pros Use 6 Chords to Write Hit Songs
(/) Slide Up  (\) Slide Down  (h) Hammer On  (p) Pull Off  (b) Bend (r) Release (v) Vibrato

Stave 1:

Eb|-----------4-----------------4-----------------4--------
Ab|--------6-----6-----------6-----6-----------6-----6-----
G |-----8-----------8-----8-----------8-----8-----------8--
C |--0-----------------------------------------------------
G |--------------------0-----------------------------------
C |--------------------------------------0-----------------

Stave 2:

Eb|--4--------5--------7--------5--------4--------5--------7--------5--------
Ab|--------6-----6--------6--------6-----------6-----6--------6--------6-----
G |-----8-----------8--------8--------8-----8-----------8--------8--------8--
C |--0-----------------------------------0-----------------------------------
G |--------------------------------------------------------------------------
C |--------------------------------------------------------------------------

Stave 3:

Eb|--2--------2--------2--------2--------2--------2--------2--------2--------
Ab|--------4--------4--------4--------4--------4--------4--------4--------4--
G |-----6--------6--------6--------6--------6--------6--------6--------6-----
C |--0--------0--------0--------0--------0--------0--------0--------0--------
G |--------------------------------------------------------------------------
C |--------------------------------------------------------------------------

Stave 4:

Eb|--
Ab|--
G |--
C |--
G |--
C |--

Stave 5:

Eb|--
Ab|--
G |--
C |--
G |--
C |--

Stave 6:

Eb|--
Ab|--
G |--
C |--
G |--
C |--

http://www.guitartabcreator.com
Guitar Tab Creator is intended to store guitar tab created through the tool. It currently does not support in-line text editing. Any text you place in here will be lost. If you need to comment on your tab, please use the "Tab Notes" section located below.