Sound will begin in 5 seconds

a minor/ a dominant 7th chords on first 4 strings. 3rd and 4th tabs are middle 4 strings.

Chords
01234567891011121314151617181920212223
E
B
G
D
A
E
B
0 1 2 3 4 5 6 7 8 9 10 11 12 13 14 15 16 17 18 19 20 21 22 23
Song Science #1: How Pros Use 6 Chords to Write Hit Songs
(/) Slide Up  (\) Slide Down  (h) Hammer On  (p) Pull Off  (b) Bend (r) Release (v) Vibrato

Stave 1:

E|-----3-----5-----8-----12-----
B|-----1-----5-----8-----10-----
G|-----2-----5-----9-----12-----
D|-----2-----5-----7-----10-----
A|------------------------------
E|------------------------------

Stave 2:

E|-----3-----5-----9-----12-----
B|-----2-----5-----8-----10-----
G|-----2-----6-----9-----12-----
D|-----2-----5-----7-----11-----
A|------------------------------
E|------------------------------

Stave 3:

E|------------------------------
B|-----1-----5-----8-----10-----
G|-----0-----2-----5-----9------
D|-----2-----5-----7-----10-----
A|-----0-----3-----7-----10-----
E|------------------------------

Stave 4:

E|------------------------------
B|-----2-----5-----8-----10-----
G|-----0-----2-----6-----9------
D|-----2-----5-----7-----11-----
A|-----0-----4-----7-----10-----
E|------------------------------

http://www.guitartabcreator.com
Guitar Tab Creator is intended to store guitar tab created through the tool. It currently does not support in-line text editing. Any text you place in here will be lost. If you need to comment on your tab, please use the "Tab Notes" section located below.