Sound will begin in 5 seconds

Chord ideas in g# minor for intro to prog metal song

Chords
01234567891011121314151617181920212223
E
B
G
D
A
E
B
0 1 2 3 4 5 6 7 8 9 10 11 12 13 14 15 16 17 18 19 20 21 22 23
Song Science #1: How Pros Use 6 Chords to Write Hit Songs
(/) Slide Up  (\) Slide Down  (h) Hammer On  (p) Pull Off  (b) Bend (r) Release (v) Vibrato

Stave 1:

E|--11--------------4--
B|--11--------------4--
G|--11--4--3--3--8--4--
D|--8---2--1--1--6--8--
A|--9---6--2--2--7--9--
E|--7---4--4--2--7--7--

Stave 2:

E|--9---14--7--9--
B|--9---12--5--9--
G|--11--11--4--8--
D|--9---11--4--6--
A|----------------
E|----------------

Stave 3:

E|--2--
B|--0--
G|--3--
D|--1--
A|--2--
E|--2--

http://www.guitartabcreator.com
Guitar Tab Creator is intended to store guitar tab created through the tool. It currently does not support in-line text editing. Any text you place in here will be lost. If you need to comment on your tab, please use the "Tab Notes" section located below.