Sound will begin in 5 seconds

When the Lights Go Out (Guitar 3)

01234567891011121314151617181920212223
E
B
G
D
A
E
B
0 1 2 3 4 5 6 7 8 9 10 11 12 13 14 15 16 17 18 19 20 21 22 23
Song Science #1: How Pros Use 6 Chords to Write Hit Songs
(/) Slide Up  (\) Slide Down  (h) Hammer On  (p) Pull Off  (b) Bend (r) Release (v) Vibrato

Stave 1:

E|----------------------------------------------------------------------------------------------
B|--13------13--15b---13------13--15b---12p10--12p10--12p10--12p10--13p10--13p10--13p10--13p10--
G|------14----------------14--------------------------------------------------------------------
D|----------------------------------------------------------------------------------------------
A|----------------------------------------------------------------------------------------------
E|----------------------------------------------------------------------------------------------

Stave 2:

E|---------------------------------------------------------------------------------------------------------
B|--10p8--10--10p8--10p8--10p8--12p8--12p8--12p8--12p8--13----------13----------13----------13----------15b
G|----------------------------------------------------------14--12------14--12------14--12------14--12-----
D|---------------------------------------------------------------------------------------------------------
A|---------------------------------------------------------------------------------------------------------
E|---------------------------------------------------------------------------------------------------------

Stave 3:

E|--------------------------------------------------------------------------------------------------------------
B|--13----------------------------------------------------------------------------------------------------------
G|------14--12--14----------------------------------------------------------------------------------------------
D|------------------15--14---------------------17--------------------------10---------12---------10---------14--
A|--------------------------17--15--14--14h15------14h15p14--12-----10h12------10h12------10h12------10h12------
E|--------------------------------------------------------------------------------------------------------------

Stave 4:

E|--------------------------------------------------------------------------------------------------------------
B|--------------------------------------------------------------------------------------------------------------
G|--------------9--------------9--------------12----------9-------------9h10p9-----9h10p9-----10h12p10--9h10p9--
D|--12--10--12-----12--10--12-----12--10--12------10--12-----12--10---------------------------------------------
A|--------------------------------------------------------------------------------------------------------------
E|--------------------------------------------------------------------------------------------------------------

Stave 5:

E|--------------------------------------------------------------------------------------------------------------
B|--------------------------------------------------------------------------------------------------------------
G|--7h9p7--5h7p5--4h5p4--------------------------------------4--------------------------------------5-----------
D|--------------------------5--7-----5--7-----5--7-----5--7--------5--7-----5--7-----5--7-----5--7--------5--7--
A|--------------------------------------------------------------------------------------------------------------
E|--------------------------------------------------------------------------------------------------------------

Stave 6:

E|---------------------------------------------------------------------------------------------------------
B|-----------------------------------------------------------------------------12-----10v-----12v-----13v--
G|--------------------------4------------------------4---------------7--9--10------------------------------
D|--5--7-----5--7-----5--7---------------------------------7--8--10----------------------------------------
A|------------------------------------------5--7--8--------------------------------------------------------
E|--------------------------------7--8--10-----------------------------------------------------------------

Stave 7:

E|--------------------------------------------------------------------------10v-----12v-----13v--
B|--10v-----12v-----13v-----12v-----10v-----12v-----13v-----10v-----12v--------------------------
G|-----------------------------------------------------------------------------------------------
D|-----------------------------------------------------------------------------------------------
A|-----------------------------------------------------------------------------------------------
E|-----------------------------------------------------------------------------------------------

Stave 8:

E|--15v-----17v-----17b---|--
B|------------------------|--
G|------------------------|--
D|------------------------|--
A|------------------------|--
E|------------------------|--

http://www.guitartabcreator.com
Guitar Tab Creator is intended to store guitar tab created through the tool. It currently does not support in-line text editing. Any text you place in here will be lost. If you need to comment on your tab, please use the "Tab Notes" section located below.