Sound will begin in 5 seconds

When the Lights Go Out (Guitar 2)

Chords
01234567891011121314151617181920212223
E
B
G
D
A
E
B
0 1 2 3 4 5 6 7 8 9 10 11 12 13 14 15 16 17 18 19 20 21 22 23
Song Science #1: How Pros Use 6 Chords to Write Hit Songs
(/) Slide Up  (\) Slide Down  (h) Hammer On  (p) Pull Off  (b) Bend (r) Release (v) Vibrato

Stave 1:

E|-----------------------------|-----------------------------------------------------------------
B|-----------------------------|-----------------------------------------------------------------
G|-----------------------------|--14--14--16--16--17--17--17--19-----13--13--16--16--16--14--14--
D|-----------------------------|--x---x---x---x---x---x---x---x------x---x---x---x---x---x---x---
A|-----------------------------|--12--12--14--14--15--15--15--17-----11--11--14--14--14--12--12--
E|-----------------------------|-----------------------------------------------------------------

Stave 2:

E|-----------------------------------------------------------------|------------------------------
B|-----------------------------------------------------------------|--13--13--11--11--10--10--13--
G|--14--14--16--16--17--17--17--19-----14--14--14--17--17--17--17--|------------------------------
D|--x---x---x---x---x---x---x---x------x---x---x---x---x---x---x---|------------------------------
A|--12--12--14--14--15--15--15--17-----12--12--12--15--15--15--15--|------------------------------
E|-----------------------------------------------------------------|------------------------------

Stave 3:

E|-------------------------------------------------------------------------------------------------
B|--13--11--11--10--10--13--13--11--10-----13--13--11--11--10--10--13--13--11--10--13--13--11--10--
G|-------------------------------------------------------------------------------------------------
D|-------------------------------------------------------------------------------------------------
A|-------------------------------------------------------------------------------------------------
E|-------------------------------------------------------------------------------------------------

Stave 4:

E|--------------------------------------------------------------|----------------------------------
B|----------10----------10----------10----------10----------10--|----------------------------------
G|------12----------12----------12----------12----------12------|--14--14--16--16--17--17--17--19--
D|--12----------12----------12----------12----------12----------|--x---x---x---x---x---x---x---x---
A|--------------------------------------------------------------|--12--12--14--14--15--15--15--17--
E|--------------------------------------------------------------|----------------------------------

Stave 5:

E|------------------------------------------------------------------------------------------------|--
B|------------------------------------------------------------------------------------------------|--
G|--13--13--16--16--16--14--14-----14--14--16--16--17--17--17--19-----14--14--14--17--17--17--17--|--
D|--x---x---x---x-------x---x------x---x---x---x---x---x---x---x------x---x---x---x---x---x---x---|--
A|--11--11--14--14--14--12--12-----12--12--14--14--15--15--15--17-----12--12--12--15--15--15--15--|--
E|------------------------------------------------------------------------------------------------|--

Stave 6:

E|--------------------------------------------------------------|---------------------------------------
B|--------------------------------------------------------------|---------------------------------------
G|--12--14--14-----12--14--14--------12--14--14-----12--14--14--|--10--9--9--9--9--9--9--9--7--7--7--7--
D|--x-------x------x---x---x---------x---x---x------x---x---x---|--x---x--x--x--x--x--x--x--x--x--x--x--
A|--10--12--12-----10--12--12--------10--12--12-----10--12--12--|--8---7--7--7--7--7--7--7--5--5--5--5--
E|--------------------------------------------------------------|---------------------------------------

Stave 7:

E|--------------|------------------------------------------------------------------|------------------
B|--------------|------------------------------------------------------------------|------------------
G|--4--4--4--4--|--17--17--17--17--17--17--17--17--16--16--16--16--16--16--16--16--|--17--17--17--17--
D|--x--x--x--x--|--x---x---x---x---x---x---x---x---x---x---x---x---x---x---x---x---|--x---x---x---x---
A|--2--2--2--2--|--15--15--15--15--15--15--15--15--14--14--14--14--14--14--14--14--|--15--15--15--15--
E|--------------|------------------------------------------------------------------|------------------

Stave 8:

E|------------------|------------------------------------------------------------------------------------
B|------------------|------------------------------------------------------------------------------------
G|--17--17--17--16--|--14--14--16--16--17--17--17--19-----13--13--16--16--16--14--14-----14--14--16--16--
D|--x---x---x---x---|--x---x---x---x---x---x---x---x------x---x---x---x---x---x---x------x---x---x---x---
A|--15--15--15--14--|--12--12--14--14--15--15--15--17-----11--11--14--14--14--12--12-----12--12--14--14--
E|------------------|------------------------------------------------------------------------------------

Stave 9:

E|-------------------------------------------------|------------------------------------------------------
B|-------------------------------------------------|------------------------------------------------------
G|--17--17--17--19-----14--14--14--17--17--17--17--|--14--14--14-----14-----14--14-----12--12--12-----12--
D|--x---x---x---x------x---x---x---x---x---x---x---|--x---x---x------x------x---x------x---x---x------x---
A|--15--15--15--17-----12--12--12--15--15--15--15--|--12--12--12-----12-----12--12-----10--10--10-----10--
E|-------------------------------------------------|------------------------------------------------------

Stave 10:

E|----------------------------------------------------------------------------------------------|--
B|----------------------------------------------------------------------------------------------|--
G|--12--12-----10--10--10-----10-----10--10-----9--9--9-----9-----9--9--7--7--7--7--4--4--4--4--|--
D|--x---x------x---x---x------x------x---x------x--x--x-----x-----x--x--x--x--x--x--x--x--x--x--|--
A|--10--10-----8---8---8------8------8---8------7--7--7-----7-----7--7--5--5--5--5--2--2--2--2--|--
E|----------------------------------------------------------------------------------------------|--

http://www.guitartabcreator.com
Guitar Tab Creator is intended to store guitar tab created through the tool. It currently does not support in-line text editing. Any text you place in here will be lost. If you need to comment on your tab, please use the "Tab Notes" section located below.