Sound will begin in 5 seconds

When the Lights Go Out (Guitar 1)

Chords
01234567891011121314151617181920212223
E
B
G
D
A
E
B
0 1 2 3 4 5 6 7 8 9 10 11 12 13 14 15 16 17 18 19 20 21 22 23
Song Science #1: How Pros Use 6 Chords to Write Hit Songs
(/) Slide Up  (\) Slide Down  (h) Hammer On  (p) Pull Off  (b) Bend (r) Release (v) Vibrato

Stave 1:

E|-------------------------------------|--------------------------------------------------------------------
B|-------------------------------------|--------------------------------------------------------------------
G|-------------------------------------|--------------------------------------------------------------------
D|-------------------------------------|--7--7--7--7---------7--7--7--7--7--7---------7--7--10--10--10--10--
A|-------------------------------------|--7--7--7--7--10--7--7--7--7--7--7--7--10--7--7--7--10--10--10--10--
E|--7-----10-----5-----7-----10-----8--|--7--7--7--7---------7--7--7--7--7--7---------7--7--10--10--10--10--

Stave 2:

E|--------------------------------------------------------------------------------------------------------------
B|--------------------------------------------------------------------------------------------------------------
G|--------------------------------------------------------------------------------------------------------------
D|---------10--10--5--5--5--5--------5--5-----7--7--7--7---------7--7--7--7--7--7---------7--7--10--10--10--10--
A|--7------10--10--5--5--5--5--3-----5--5-----7--7--7--7--10--7--7--7--7--7--7--7--10--7--7--7--10--10--10--10--
E|-----10--10--10--5--5--5--5-----5--5--5-----7--7--7--7---------7--7--7--7--7--7---------7--7--10--10--10--10--

Stave 3:

E|---------------------------------------------|----------------------------------------------------------
B|---------------------------------------------|----------------------------------------------------------
G|---------------------------------------------|----------------------------------------------------------
D|---------10--10--8--8--8--8--11--11--11--11--|----------------------------------------------------------
A|--7------10--10--8--8--8--8--11--11--11--11--|-------------------------------5--------------------------
E|-----10--10--10--8--8--8--8--11--11--11--11--|--7--10--7-----7--10--7-----------7--7--7--8--5-----0-----

Stave 4:

E|-------------------------------------------------------------------------------------------------
B|-------------------------------------------------------------------------------------------------
G|-------------------------------------------------------------------------------------------------
D|-------------------------------------------------------------------------------------------------
A|-----------8--7--5--0----------------------------------------5-----------------------------------
E|--0--0--0--------------3--5--2-----7--10--7-----7--10--7--------7--7--7--8--5-----0-----0--0--0--

Stave 5:

E|--------------------------|---------------------------------------------------------------------
B|--------------------------|---------------------------------------------------------------------
G|--------------------------|---------------------------------------------------------------------
D|--------------------------|---------------------------------------------------------------------
A|--8--7--5--0--------3--5--|--7--7--7-----7--7--7------5--0-----0-----0--0--0--3--3--3--5--5--5--
E|--------------3--5--------|--7--7--7-----7--7--7--10-----0-----0-----0--0--0--3--3--3--5--5--5--

Stave 6:

E|---------------------------------------------------------------------|---------------------------------------
B|---------------------------------------------------------------------|---------------------------------------
G|---------------------------------------------------------------------|---------------------------------------
D|---------------------------------------------------------------------|--7--7--7--7---------7--7--7--7--7--7--
A|--7--7--7-----7--7--7------5--0-----0-----0--0--0--5--5--5--2--2--2--|--7--7--7--7--10--7--7--7--7--7--7--7--
E|--7--7--7-----7--7--7--10-----0-----0-----0--0--0--5--5--5--2--2--2--|--7--7--7--7---------7--7--7--7--7--7--

Stave 7:

E|-----------------------------------------------------------------------------------------------------------
B|-----------------------------------------------------------------------------------------------------------
G|-----------------------------------------------------------------------------------------------------------
D|---------7--7--10--10--10--10---------10--10--5--5--5--5--------5--5-----7--7--7--7---------7--7--7--7--7--
A|--10--7--7--7--10--10--10--10--7------10--10--5--5--5--5--3-----5--5-----7--7--7--7--10--7--7--7--7--7--7--
E|---------7--7--10--10--10--10-----10--10--10--5--5--5--5-----5--5--5-----7--7--7--7---------7--7--7--7--7--

Stave 8:

E|-----------------------------------------------------------------------------|----------------------------
B|-----------------------------------------------------------------------------|----------------------------
G|-----------------------------------------------------------------------------|----------------------------
D|--7---------7--7--10--10--10--10---------10--10--8--8--8--8--11--11--11--11--|--------7------------8------
A|--7--10--7--7--7--10--10--10--10--7------10--10--8--8--8--8--11--11--11--11--|--0--8-----8--0--10-----10--
E|--7---------7--7--10--10--10--10-----10--10--10--8--8--8--8--11--11--11--11--|--0-----------0-------------

Stave 9:

E|---------------------------------------------------------------------------------------------------------
B|---------------------------------------------------------------------------------------------------------
G|--------------------10------------------------------------------------------10------12-------------------
D|---------10-------------12--14--------7------------8-------------10-------------12-----------------7-----
A|--0--12------12--0--------------0--8-----8--0--10-----10--0--12------12--0--------------0--0--7h8-----0--
E|--0--------------0--------------0-----------0-------------0--------------0--------------0--0----------0--

Stave 10:

E|-----------------------------------------------------------------------------------------------------
B|-----------------------------------------------------------------------------------------------------
G|-----------------------------------------------------------------------------------------------------
D|--------8---------------10--10--10--10--10--8--8--8--8--------8p7------------------8-----------------
A|--8h10-----0--0--10h12----------------------------------0--0-------8--0--0--12p10-----0--0--10p8--7--
E|-----------0--0-----------------------------------------0--0----------0--0------------0--0-----------

Stave 11:

E|-----------------------------|---------------------------------------------------------------------------|--
B|-----------------------------|---------------------------------------------------------------------------|--
G|-----------------------------|---------------------------------------------------------------------------|--
D|-----------------------0-----|---------------------------------------------------------------------------|--
A|--3--3--3--5--5--5--5--0-----|---------------------------------------------------------------------------|--
E|-----------------------0-----|--7-----10-----5-----7-----10-----8-----7-----10-----5-----7-----10-----8--|--

Stave 12:

E|-----------------------------------------------------------------------------------------------------------
B|-----------------------------------------------------------------------------------------------------------
G|-----------------------------------------------------------------------------------------------------------
D|--7--7--7--7---------7--7--7--7--7--7---------7--7--10--10--10--10---------10--10--5--5--5--5--------5--5--
A|--7--7--7--7--10--7--7--7--7--7--7--7--10--7--7--7--10--10--10--10--7------10--10--5--5--5--5--3-----5--5--
E|--7--7--7--7---------7--7--7--7--7--7---------7--7--10--10--10--10-----10--10--10--5--5--5--5-----5--5--5--

Stave 13:

E|-----------------------------------------------------------------------------------------------------------
B|-----------------------------------------------------------------------------------------------------------
G|-----------------------------------------------------------------------------------------------------------
D|--7--7--7--7---------7--7--7--7--7--7---------7--7--10--10--10--10---------10--10--8--8--8--8--11--11--11--
A|--7--7--7--7--10--7--7--7--7--7--7--7--10--7--7--7--10--10--10--10--7------10--10--8--8--8--8--11--11--11--
E|--7--7--7--7---------7--7--7--7--7--7---------7--7--10--10--10--10-----10--10--10--8--8--8--8--11--11--11--

Stave 14:

E|------|----------------------------------------------------------------------------------------------------
B|------|----------------------------------------------------------------------------------------------------
G|------|----------------------------------------------------------------------------------------------------
D|--11--|--7--7--7--12--10--7-----7--7--10--9--9--10--5--5--5--10--9--5-----5--5--9--7--7--9--3--3--3--9--7--
A|--11--|--7--7--7--10--8---7-----7--7--8---7--7--8---5--5--5--8---7--5-----5--5--7--5--5--7--3--3--3--7--5--
E|--11--|--7--7--7----------7-----7--7----------------5--5--5---------5-----5--5--------------3--3--3--------

Stave 15:

E|-----------------------------------------------------------------|--------|--
B|-----------------------------------------------------------------|--------|--
G|-----------------------------------------------------------------|--------|--
D|--3-----3--3--7--5--5--7--2--2--2--7--5--2-----2--2--5--4--4--5--|--7-----|--
A|--3-----3--3--5--3--3--5--2--2--2--5--3--2-----2--2--3--2--2--3--|--7-----|--
E|--3-----3--3--------------2--2--2--------2-----2--2--------------|--7-----|--

http://www.guitartabcreator.com
Guitar Tab Creator is intended to store guitar tab created through the tool. It currently does not support in-line text editing. Any text you place in here will be lost. If you need to comment on your tab, please use the "Tab Notes" section located below.