Sound will begin in 5 seconds

No Turning Back (Guitar 2)

Chords
01234567891011121314151617181920212223
E
B
G
D
A
E
B
0 1 2 3 4 5 6 7 8 9 10 11 12 13 14 15 16 17 18 19 20 21 22 23
Song Science #1: How Pros Use 6 Chords to Write Hit Songs
(/) Slide Up  (\) Slide Down  (h) Hammer On  (p) Pull Off  (b) Bend (r) Release (v) Vibrato

Stave 1:

E|-----------------------------------------------------------------------------------------------------------
B|--------------------------------------------10-------------------------------------------------------------
G|--------------------------------------------7--------------------------------------------------------------
D|-----------------------------------------------------------------------------------------------------------
A|---------------------------------------------------------12--13-------------13p10--12p10-----------12--13--
E|---------------------------------------------------0--0----------0--10--10----------------0--0--0----------

Stave 2:

E|--------------------------------------------------------------------------------------------------------
B|--------------------------------------------------------------------------------------------------------
G|--------------------------------------------------------------------------------------------------------
D|------------------------------------------------------------------------10--10--10--10--10--10--10--10--
A|-------------13h10--10h12-----------12--13-------------13p10--12p10--0----------------------------------
E|--0--10--10----------------0--0--0----------0--10--10---------------------------------------------------

Stave 3:

E|-----------------------------|--------------------------------------------------------------------------|--
B|-----------------------------|---------------------10-------------------------------------12--------13--|--
G|--12--12--12--12--10--9--10--|--10--------9----------------------------10--------9----------------------|--
D|-----------------------------|-------------------------------12-----------------------------------------|--
A|-----------------------------|--------------------------------------------------------------------------|--
E|-----------------------------|--------------------------------------------------------------------------|--

Stave 4:

E|------------------------------------------------------------------------------------------
B|------------------------------------------------------------------------------------------
G|------------------------------------------------------------------------------------------
D|--10p0--12p0--10p0--12p0--10p0--12p0--10p0--12p0--7p0--9p0--7p0--9p0--7p0--9p0--7p0--9p0--
A|------------------------------------------------------------------------------------------
E|------------------------------------------------------------------------------------------

Stave 5:

E|------------------------------------------------------------------------------------------------------|--
B|------------------------------------------------------------------------------------------------------|--
G|--------13--------10--------9--------7----------------------------------------------------------------|--
D|--9h10------9h10------9h10-----9h10-----10--10--10--12--12--12--12--12--12--12--12--14--14--14--14--9\|--
A|------------------------------------------------------------------------------------------------------|--
E|------------------------------------------------------------------------------------------------------|--

Stave 6:

E|-----------------------------------------------------------------------------------------------------
B|-----------------------------------------------------------------------------------------------------
G|--14--14--14--10--10--10--12--12--12--9--9--9--14--14--14--10--10--10--12--12--12--9--9--9--7--7--7--
D|-----------------------------------------------------------------------------------------------------
A|-----------------------------------------------------------------------------------------------------
E|-----------------------------------------------------------------------------------------------------

Stave 7:

E|-----------------------------------------------------------------------|--
B|-----------------------------------------------------------------------|--
G|--9--9--9--10--10--10--12--12--12--5--5--5--7--7--7--8--8--8--9--9--9--|--
D|-----------------------------------------------------------------------|--
A|-----------------------------------------------------------------------|--
E|-----------------------------------------------------------------------|--

Stave 8:

E|------------------------------------------------------------------------------------------
B|------------------------------------------------------------------------------------------
G|------------------------------------------------------------------------------------------
D|--10p0--12p0--10p0--12p0--10p0--12p0--10p0--12p0--7p0--9p0--7p0--9p0--7p0--9p0--7p0--9p0--
A|------------------------------------------------------------------------------------------
E|------------------------------------------------------------------------------------------

Stave 9:

E|------------------------------------------------------------------------------------------------------|--
B|------------------------------------------------------------------------------------------------------|--
G|--------12--------10--------9--------7----------------------------------------------------------------|--
D|--9h10------9h10------9h10-----9h10-----10--10--10--12--12--12--12--12--12--12--12--14--14--14--14--9\|--
A|------------------------------------------------------------------------------------------------------|--
E|------------------------------------------------------------------------------------------------------|--

Stave 10:

E|---------------------------------------------------------|---------------------------------|--
B|--6-----x--x--5-----x--x--x--x--6-----x--x--8-----10-----|--6-----5-----6-----8-----10-----|--
G|--7-----x--x--7-----x--x--x--x--7-----x--x--7-----7------|--7-----7-----7-----7-----7------|--
D|---------------------------------------------------------|---------------------------------|--
A|---------------------------------------------------------|---------------------------------|--
E|---------------------------------------------------------|---------------------------------|--

Stave 11:

E|----------------------------------------------------------|-----------------------------------------
B|------8------8------8------8------7------7------7------7--|-----6-----6--------5-----5-----5-----5--
G|--11-----11-----11-----11-----10-----10-----10-----10-----|--7-----7--------7-----7-----7-----7-----
D|----------------------------------------------------------|-----------------------------------------
A|----------------------------------------------------------|-----------------------------------------
E|----------------------------------------------------------|-----------------------------------------

Stave 12:

E|-----------------------------------------|-----------------------------|--
B|-----6-----6--------8-----8-----8-----8--|-----6-----6--------5-----5--|--
G|--7-----7--------7-----7-----7-----7-----|--7-----7--------7-----7-----|--
D|-----------------------------------------|-----------------------------|--
A|-----------------------------------------|-----------------------------|--
E|-----------------------------------------|-----------------------------|--

Stave 13:

E|------------------------------------------------------------------------------------------
B|------------------------------------------------------------------------------------------
G|------------------------------------------------------------------------------------------
D|--10p0--12p0--10p0--12p0--10p0--12p0--10p0--12p0--7p0--9p0--7p0--9p0--7p0--9p0--7p0--9p0--
A|------------------------------------------------------------------------------------------
E|------------------------------------------------------------------------------------------

Stave 14:

E|------------------------------------------------------------------------------------------------------|--
B|------------------------------------------------------------------------------------------------------|--
G|--------12--------10--------9--------7----------------------------------------------------------------|--
D|--9h10------9h10------9h10-----9h10-----10--10--10--12--12--12--12--12--12--12--12--14--14--14--14--9\|--
A|------------------------------------------------------------------------------------------------------|--
E|------------------------------------------------------------------------------------------------------|--

Stave 15:

E|--------------------------------------------------------------------------------------------------
B|-----6-----6--------5-----5-----5-----5--------6-----6--------8-----8-----8-----8--------6-----6--
G|--7-----7--------7-----7-----7-----7--------7-----7--------7-----7-----7-----7--------7-----7-----
D|--------------------------------------------------------------------------------------------------
A|--------------------------------------------------------------------------------------------------
E|--------------------------------------------------------------------------------------------------

Stave 16:

E|--------------|--
B|-----5-----5--|--
G|--7-----7-----|--
D|--------------|--
A|--------------|--
E|--------------|--

http://www.guitartabcreator.com
Guitar Tab Creator is intended to store guitar tab created through the tool. It currently does not support in-line text editing. Any text you place in here will be lost. If you need to comment on your tab, please use the "Tab Notes" section located below.