Sound will begin in 5 seconds

No Turning Back (Guitar 1)

Chords
01234567891011121314151617181920212223
E
B
G
D
A
E
B
0 1 2 3 4 5 6 7 8 9 10 11 12 13 14 15 16 17 18 19 20 21 22 23
Song Science #1: How Pros Use 6 Chords to Write Hit Songs
(/) Slide Up  (\) Slide Down  (h) Hammer On  (p) Pull Off  (b) Bend (r) Release (v) Vibrato

Stave 1:

E|-----------------------------------------------------------------------------------------------------
B|-----------------------------------------------------------------------------------------------------
G|-----------------------------------------------------------------------------------------------------
D|-----------------------------------------------------------------------------------------------------
A|--------7--8-----------8r5--7r5-----------7--8-----------8r5--5h7-----------7--8-----------8r5--7r5--
E|--0--0--------0--5--5------------0--0--0--------0--5--5------------0--0--0--------0--5--5------------

Stave 2:

E|--------------------------------------------------|------------------------|--------------------------
B|--------------------------------------------------|------------------------|--------------------------
G|--------------------------------------------------|------------------------|--------------------------
D|-----------------------------5--5--5--5--3--2--3--|--3-----2-----7-----10--|--3--0--3-----2-----7-----
A|--0--3--3--3--3--3--3--3--3-----------------------|--3-----2-----7-----10--|--3--0--3-----2-----7-----
E|--------------------------------------------------|--3-----2-----7-----10--|--3--0--3-----2-----7-----

Stave 3:

E|------|------------------------|------------------------------|------------------------|-----------------
B|------|------------------------|------------------------------|------------------------|-----------------
G|------|------------------------|------------------------------|------------------------|-----------------
D|--10--|--3-----2-----7-----10--|--3--0--3-----2-----7-----10--|--3-----2-----7-----10--|--3--0-----3--1--
A|--10--|--3-----2-----7-----10--|--3--0--3-----2-----7-----10--|--3-----2-----7-----10--|--3--0-----3--1--
E|--10--|--3-----2-----7-----10--|--3--0--3-----2-----7-----10--|--3-----2-----7-----10--|--3--0-----3--1--

Stave 4:

E|-----------------|-----------------------------------------------|--------------|----|--------------------
B|-----------------|-----------------------------------------------|--------------|----|--------------------
G|-----------------|-----------------------------------------------|--------------|----|--------------------
D|--3--0-----8--5--|-----------------------------------------------|--------------|----|--------------------
A|--3--0-----8--5--|--0--0--0-----0--0--0-----0--0--0-----0--0--0--|--3--5--3--0--|----|--8--8--8--8--8--8--
E|--3--0-----8--5--|--0--0--0-----0--0--0-----0--0--0-----0--0--0--|--3--5--3--0--|--1b|--8--8--8--8--8--8--

Stave 5:

E|-------------------------------------------------------------------|-----------------------------------|--
B|-------------------------------------------------------------------|-----------------------------------|--
G|-------------------------------------------------------------------|-----------------------------------|--
D|----------------------------------------0--------------0-----------|-----------------------------------|--
A|--8--8--10--10--10--10--10--10--10--10--0--------------0-----------|--0-----0--1--1--0--x--x-----------|--
E|--8--8--10--10--10--10--10--10--10--10--0-----------12\0-----------|--0-----0--1--1--0--x--x--3--2--1--|--

Stave 6:

E|-----------------------------------|-----------------------------------------------------------|--
B|-----------------------------------|-----------------------------------------------------------|--
G|-----------------------------------|-----------------------------------------------------------|--
D|-----------------------------------|--0-----0--0--0--0--1--1--0-----0--0--0--0--0--0--3--2--1--|--
A|--0-----0--1--1--0--x--x--------3--|--0-----0--0--0--0--1--1--0-----0--0--0--0--0--0--3--2--1--|--
E|--0-----0--1--1--0--x--x--3--2-----|--0-----0--0--0--0--1--1--0-----0--0--0--0--0--0--3--2--1--|--

Stave 7:

E|---------------------------------------------------------------------|-----------------------------------
B|---------------------------------------------------------------------|-----------------------------------
G|---------------------------------------------------------------------|-----------------------------------
D|--0-----0--0--0--0--1--1--0-----0--0--0--0--0--0---------------------|--0-----0--0--0--0--1--1--3-----3--
A|--0-----0--0--0--0--1--1--0-----0--0--0--0--0--0-------x--x-------3--|--0-----0--0--0--0--1--1--3-----3--
E|--0-----0--0--0--0--1--1--0-----0--0--0--0--0--0--5p3--x--x--2h3-----|--0-----0--0--0--0--1--1--3-----3--

Stave 8:

E|--------------------------|------------------------|-----------------------------------|-----
B|--------------------------|------------------------|-----------------------------------|-----
G|--------------------------|------------------------|-----------------------------------|-----
D|--3--3--3--3--1--1--0-----|--3-----2-----7-----10--|-----------------------------------|--0--
A|--3--3--3--3--1--1--0-----|--3-----2-----7-----10--|-----------------------------------|--0--
E|--3--3--3--3--1--1--0-----|--3-----2-----7-----10--|--0-----0--0--0--0--1--1--0-----12\|--0--

Stave 9:

E|-----------------------------------------------------|--------------------------------------------------
B|-----------------------------------------------------|--------------------------------------------------
G|-----------------------------------------------------|--------------------------------------------------
D|--0--0--0--0--1--1--0-----0--0--0--0--0--0--3--2--1--|--0-----0--0--0--0--1--1--0-----0--0--0--0--0--0--
A|--0--0--0--0--1--1--0-----0--0--0--0--0--0--3--2--1--|--0-----0--0--0--0--1--1--0-----0--0--0--0--0--0--
E|--0--0--0--0--1--1--0-----0--0--0--0--0--0--3--2--1--|--0-----0--0--0--0--1--1--0-----0--0--0--0--0--0--

Stave 10:

E|---------------------|--------------------------------------------------------------------------|--
B|---------------------|--------------------------------------------------------------------------|--
G|---------------------|--------------------------------------------------------------------------|--
D|---------------------|--0-----0--0--0--0--1--1--3-----3-----3--3--3--3--1--1--0--0-----0--------|--
A|-------x--x-------3--|--0-----0--0--0--0--1--1--3-----3-----3--3--3--3--1--1--0--0-----0--------|--
E|--5p3--x--x--2h3-----|--0-----0--0--0--0--1--1--3-----3-----3--3--3--3--1--1--0--0-----0--------|--

http://www.guitartabcreator.com
Guitar Tab Creator is intended to store guitar tab created through the tool. It currently does not support in-line text editing. Any text you place in here will be lost. If you need to comment on your tab, please use the "Tab Notes" section located below.