Fooled Around And Fell In Love - Solo

Chords

01234567891011121314151617181920212223
E
B
G
D
A
E
B
0 1 2 3 4 5 6 7 8 9 10 11 12 13 14 15 16 17 18 19 20 21 22 23
(/) Slide Up  (\) Slide Down  (h) Hammer On  (p) Pull Off  (b) Bend (r) Release (v) Vibrato

Stave 1:

E|-----------------------------------------------------------------------------------------------------------------------------
B|-----------------------------------------------------------------------------------------------------------------------------
G|-----------------------------------------------------------------------------------------------------------------------------
D|-------------------10--12--10--12b14--12--10--12b14v--12--10--12--12b14r12--10v--10\7----------------------------------------
A|--------8--10/12v----------------------------------------------------------------------8--10------8h10--8--------8-----------
E|--8h10----------------------------------------------------------------------------------------10-----------8/10-----10\8--6--

Stave 2:

E|-------------------------------------------------13--15--13--13b15--13b15--13b15--13--13b15--13--13b15--13--13b15--13------13--
B|-----------------------------------------13--15------------------------------------------------------------------------15------
G|------------------------------10--12/14----------------------------------------------------------------------------------------
D|------------------10v--10h12---------------------------------------------------------------------------------------------------
A|--------8--10/12---------------------------------------------------------------------------------------------------------------
E|--8h10-------------------------------------------------------------------------------------------------------------------------

Stave 3:

E|---------13---------------------------------------------------15b18r15--13--------------------------------------------------------------
B|--13h15-------------------------------13------------------------------------13--15------------------------------------------------------
G|-------------14\12---------10--12b14------12b14--10--12--10v----------------------------13--13h14--13h14--------------------------------
D|--------------------10h12-----------------------------------------------------------15--------------------15--14h15--14h15--14--12--10--
A|----------------------------------------------------------------------------------------------------------------------------------------
E|----------------------------------------------------------------------------------------------------------------------------------------

Stave 4:

E|-------------------------------------------------------------------------------
B|-------------------------------------------------------------------------------
G|---------10--10--10--10---------10--10--10--10--10--10---------10--10--10--10--
D|--10/12------------------10/12--------------------------10/12------------------
A|-------------------------------------------------------------------------------
E|-------------------------------------------------------------------------------

Stave 5:

E|--13-----------------------------------------
B|------13h15v---------------------------------
G|--------------14\12--10--12------10h12--10v--
D|-----------------------------12--------------
A|---------------------------------------------
E|---------------------------------------------

Stave 6:

E|--------------------------------------------------------------------------------------------10/12--12---------------------
B|--11/13--13--13--11/13--13--13--11/13--13--13--11/13--13--13--11/13--13--13--11/13--13--13--11-13------13--11/13--13--13--
G|--12-14--14--14--12-14--14--14--12-14--14--14--12-14--14--14--12-14--14--14--12-14--14--14-----------------12-14--14--14--
D|--------------------------------------------------------------------------------------------------------------------------
A|--------------------------------------------------------------------------------------------------------------------------
E|--------------------------------------------------------------------------------------------------------------------------

Stave 7:

E|--------------------------------------------------------------------6----------4----------3-----------------
B|--9-/11--11--11--9-/11--11--11--9-/11--11--11--9-/11--11--11------------------------------------------------
G|--10-12--12--12--10-12--12--12--10-12--12--12--10-12--12--12--10\7-----7--7/5-----5--5/3-----3--0h1--0------
D|--------------------------------------------------------------------------------------------------------3v--
A|------------------------------------------------------------------------------------------------------------
E|------------------------------------------------------------------------------------------------------------

							http://www.guitartabcreator.com
genre
Instruments
{"strings":[[[".",".",".",".",".",".",".",".",".",".",".",".",".",".",".",".",".",".",".",".",".",".",".",".",".",".",".",".",".",".",".",".",".",".",".",".",".",".",".",".",".",".",".",".",".",".",".","."],[".",".",".",".",".",".",".",".",".",".",".",".",".",".",".",".",".",".",".",".",".",".",".",".",".",".",".",".",".",".",".",".",".",".",".",".",".",".",".",".",".",".",".",".",".",".",".","."],[".",".",".",".",".",".",".",".",".",".",".",".",".",".",".",".",".",".",".",".",".",".",".",".",".",".",".",".",".",".",".",".",".",".",".",".",".",".",".",".",".",".",".",".",".",".",".","."],[".",".",".",".",".",".",".",".",10,12,10,12,"b",14,12,10,12,"b",14,"v",12,10,12,12,"b",14,"r",12,10,"v",10,"\\",7,".",".",".",".",".",".",".",".",".",".",".",".",".",".","."],[".",".",".",8,10,"/",12,"v",".",".",".",".",".",".",".",".",".",".",".",".",".",".",".",".",".",".",".",".",".",".",".",".",".",8,10,".",8,"h",10,8,".",".",".",8,".",".",".","."],[8,"h",10,".",".",".",".",".",".",".",".",".",".",".",".",".",".",".",".",".",".",".",".",".",".",".",".",".",".",".",".",".",".",".",".",10,".",".",".",".",8,"/",10,".",10,"\\",8,6]],[[".",".",".",".",".",".",".",".",".",".",".",".",".",".",".",".",".",".",13,15,13,13,"b",15,13,"b",15,13,"b",15,13,13,"b",15,13,13,"b",15,13,13,"b",15,13,".",13],[".",".",".",".",".",".",".",".",".",".",".",".",".",".",".",".",13,15,".",".",".",".",".",".",".",".",".",".",".",".",".",".",".",".",".",".",".",".",".",".",".",".",".",15,"."],[".",".",".",".",".",".",".",".",".",".",".",".",10,12,"/",14,".",".",".",".",".",".",".",".",".",".",".",".",".",".",".",".",".",".",".",".",".",".",".",".",".",".",".",".","."],[".",".",".",".",".",".",".",10,"v",10,"h",12,".",".",".",".",".",".",".",".",".",".",".",".",".",".",".",".",".",".",".",".",".",".",".",".",".",".",".",".",".",".",".",".","."],[".",".",".",8,10,"/",12,".",".",".",".",".",".",".",".",".",".",".",".",".",".",".",".",".",".",".",".",".",".",".",".",".",".",".",".",".",".",".",".",".",".",".",".",".","."],[8,"h",10,".",".",".",".",".",".",".",".",".",".",".",".",".",".",".",".",".",".",".",".",".",".",".",".",".",".",".",".",".",".",".",".",".",".",".",".",".",".",".",".",".","."]],[[".",".",".",13,".",".",".",".",".",".",".",".",".",".",".",".",".",".",".",".",".",".",15,"b",18,"r",15,13,".",".",".",".",".",".",".",".",".",".",".",".",".","."],[13,"h",15,".",".",".",".",".",".",".",".",".",".",".",13,".",".",".",".",".",".",".",".",".",".",".",".",".",13,15,".",".",".",".",".",".",".",".",".",".",".","."],[".",".",".",".",14,"\\",12,".",".",".",10,12,"b",14,".",12,"b",14,10,12,10,"v",".",".",".",".",".",".",".",".",".",13,13,"h",14,".",".",".",".",".",".","."],[".",".",".",".",".",".",".",10,"h",12,".",".",".",".",".",".",".",".",".",".",".",".",".",".",".",".",".",".",".",".",15,".",".",".",".",15,14,"h",15,14,12,10],[".",".",".",".",".",".",".",".",".",".",".",".",".",".",".",".",".",".",".",".",".",".",".",".",".",".",".",".",".",".",".",".",".",".",".",".",".",".",".",".",".","."],[".",".",".",".",".",".",".",".",".",".",".",".",".",".",".",".",".",".",".",".",".",".",".",".",".",".",".",".",".",".",".",".",".",".",".",".",".",".",".",".",".","."]],[[".",".",".",".",".",".",".",".",".",".",".",".",".",".",".",".",".",".",".",".",".",".","."],[".",".",".",".",".",".",".",".",".",".",".",".",".",".",".",".",".",".",".",".",".",".","."],[".",".",".",10,10,10,10,".",".",".",10,10,10,10,10,10,".",".",".",10,10,10,10],[10,"/",12,".",".",".",".",10,"/",12,".",".",".",".",".",".",10,"/",12,".",".",".","."],[".",".",".",".",".",".",".",".",".",".",".",".",".",".",".",".",".",".",".",".",".",".","."],[".",".",".",".",".",".",".",".",".",".",".",".",".",".",".",".",".",".",".",".",".",".","."]],[[13,".",".",".",".",".",".",".",".",".",".",".",".",".",".","."],[".",13,"h",15,"v",".",".",".",".",".",".",".",".",".",".","."],[".",".",".",".",".",14,"\\",12,10,12,".",10,"h",12,10,"v"],[".",".",".",".",".",".",".",".",".",".",12,".",".",".",".","."],[".",".",".",".",".",".",".",".",".",".",".",".",".",".",".","."],[".",".",".",".",".",".",".",".",".",".",".",".",".",".",".","."]],[[".",".",".",".",".",".",".",".",".",".",".",".",".",".",".",".",".",".",".",".",".",".",".",".",".",".",".",".",".",".",10,"/",12,12,".",".",".",".",".","."],[11,"/",13,13,13,11,"/",13,13,13,11,"/",13,13,13,11,"/",13,13,13,11,"/",13,13,13,11,"/",13,13,13,11,".",13,".",13,11,"/",13,13,13],[12,".",14,14,14,12,".",14,14,14,12,".",14,14,14,12,".",14,14,14,12,".",14,14,14,12,".",14,14,14,".",".",".",".",".",12,".",14,14,14],[".",".",".",".",".",".",".",".",".",".",".",".",".",".",".",".",".",".",".",".",".",".",".",".",".",".",".",".",".",".",".",".",".",".",".",".",".",".",".","."],[".",".",".",".",".",".",".",".",".",".",".",".",".",".",".",".",".",".",".",".",".",".",".",".",".",".",".",".",".",".",".",".",".",".",".",".",".",".",".","."],[".",".",".",".",".",".",".",".",".",".",".",".",".",".",".",".",".",".",".",".",".",".",".",".",".",".",".",".",".",".",".",".",".",".",".",".",".",".",".","."]],[[".",".",".",".",".",".",".",".",".",".",".",".",".",".",".",".",".",".",".",".",".",".",".",6,".",".",".",".",4,".",".",".",".",3,".",".",".",".",".",".","."],[9,"/",11,11,11,9,"/",11,11,11,9,"/",11,11,11,9,"/",11,11,11,".",".",".",".",".",".",".",".",".",".",".",".",".",".",".",".",".",".",".",".","."],[10,".",12,12,12,10,".",12,12,12,10,".",12,12,12,10,".",12,12,12,10,"\\",7,".",7,7,"/",5,".",5,5,"/",3,".",3,0,"h",1,0,".","."],[".",".",".",".",".",".",".",".",".",".",".",".",".",".",".",".",".",".",".",".",".",".",".",".",".",".",".",".",".",".",".",".",".",".",".",".",".",".",".",3,"v"],[".",".",".",".",".",".",".",".",".",".",".",".",".",".",".",".",".",".",".",".",".",".",".",".",".",".",".",".",".",".",".",".",".",".",".",".",".",".",".",".","."],[".",".",".",".",".",".",".",".",".",".",".",".",".",".",".",".",".",".",".",".",".",".",".",".",".",".",".",".",".",".",".",".",".",".",".",".",".",".",".",".","."]]],"numberofstrings":6,"notes":["E","B","G","D","A","E","B"],"capo":0,"stringnotes":["E4","B3","G3","D3","A2","E2"],"comments":["Stave 1:","Stave 2:","Stave 3:","Stave 4:","Stave 5:","Stave 6:","Stave 7:"],"timing":[["W",null,"W","W","W",null,"W",null,"W","W","W","W",null,"W","W","W","W",null,"W",null,"W","W","W","W","W","W","W","W","W",null,"W",null,"W","W","W","W","W",null,"W","W","W",null,"W","W","W",null,"W","W"],["W",null,"W","W","W",null,"W","W",null,"W",null,"W","W","W",null,"W","W","W","W","W","W","W",null,"W","W",null,"W","W",null,"W","W","W",null,"W","W","W",null,"W","W","W",null,"W","W","W","W"],["W",null,"W","W","W",null,"W","W",null,"W","W","W",null,"W","W","W",null,"W","W","W","W",null,"W",null,"W",null,"W","W","W","W","W","W","W",null,"W","W","W",null,"W","W","W","W"],["W",null,"W","W","W","W","W","W",null,"W","W","W","W","W","W","W","W",null,"W","W","W","W","W"],["W","W",null,"W",null,"W",null,"W","W","W","W","W",null,"W","W"],["W",null,"W","W","W","W","W","W","W","W","W",null,"W","W","W","W",null,"W","W","W","W",null,"W","W","W","W",null,"W","W","W","W",null,"W","W","W","W",null,"W","W","W","W"],["W",null,"W","W","W","W",null,"W","W","W","W",null,"W","W","W","W",null,"W","W","W","W",null,"W","W","W","W",null,"W","W","W","W",null,"W","W","W","W",null,"W","W","W"]],"timingvisible":false,"tabcounter":41,"stave":6,"totalstaves":7,"instrument":"6guitar","selectedtuning":"6_standard","version":"13"}

Member for

3 months
Submitted by guitarmike77 on Mon, 2020-08-31 17:37