Jay Parrino Lesson 3

Chords

01234567891011121314151617181920212223
E
B
G
D
A
E
B
0 1 2 3 4 5 6 7 8 9 10 11 12 13 14 15 16 17 18 19 20 21 22 23
(/) Slide Up  (\) Slide Down  (h) Hammer On  (p) Pull Off  (b) Bend (r) Release (v) Vibrato

Stave 1:

E|-----------------------------------------1-4-3-2-
B|---------------------------------1-4-2-3---------
G|-------------------------1-3-4-2-----------------
D|-----------------1-3-2-4-------------------------
A|---------1-2-4-3---------------------------------
E|-1-2-3-4-----------------------------------------

Stave 2:

E|-----------------------------------------2-1-4-3-
B|---------------------------------2-1-3-4---------
G|-------------------------2-4-3-1-----------------
D|-----------------2-4-1-3-------------------------
A|---------2-3-1-4---------------------------------
E|-2-3-4-1-----------------------------------------

Stave 3:

E|-----------------------------------------3-4-1-2-
B|---------------------------------3-4-2-1---------
G|-------------------------3-1-4-2-----------------
D|-----------------3-1-2-4-------------------------
A|---------3-2-1-4---------------------------------
E|-3-2-4-1-----------------------------------------

Stave 4:

E|-----------------------------------------4-1-3-2-
B|---------------------------------4-1-2-3---------
G|-------------------------4-2-3-1-----------------
D|-----------------4-2-1-3-------------------------
A|---------4-3-1-2---------------------------------
E|-4-3-2-1-----------------------------------------

							http://www.guitartabcreator.com
Instruments
{"strings":[[[".",".",".",".",".",".",".",".",".",".",".",".",".",".",".",".",".",".",".",".",1,4,3,2],[".",".",".",".",".",".",".",".",".",".",".",".",".",".",".",".",1,4,2,3,".",".",".","."],[".",".",".",".",".",".",".",".",".",".",".",".",1,3,4,2,".",".",".",".",".",".",".","."],[".",".",".",".",".",".",".",".",1,3,2,4,".",".",".",".",".",".",".",".",".",".",".","."],[".",".",".",".",1,2,4,3,".",".",".",".",".",".",".",".",".",".",".",".",".",".",".","."],[1,2,3,4,".",".",".",".",".",".",".",".",".",".",".",".",".",".",".",".",".",".",".","."]],[[".",".",".",".",".",".",".",".",".",".",".",".",".",".",".",".",".",".",".",".",2,1,4,3],[".",".",".",".",".",".",".",".",".",".",".",".",".",".",".",".",2,1,3,4,".",".",".","."],[".",".",".",".",".",".",".",".",".",".",".",".",2,4,3,1,".",".",".",".",".",".",".","."],[".",".",".",".",".",".",".",".",2,4,1,3,".",".",".",".",".",".",".",".",".",".",".","."],[".",".",".",".",2,3,1,4,".",".",".",".",".",".",".",".",".",".",".",".",".",".",".","."],[2,3,4,1,".",".",".",".",".",".",".",".",".",".",".",".",".",".",".",".",".",".",".","."]],[[".",".",".",".",".",".",".",".",".",".",".",".",".",".",".",".",".",".",".",".",3,4,1,2],[".",".",".",".",".",".",".",".",".",".",".",".",".",".",".",".",3,4,2,1,".",".",".","."],[".",".",".",".",".",".",".",".",".",".",".",".",3,1,4,2,".",".",".",".",".",".",".","."],[".",".",".",".",".",".",".",".",3,1,2,4,".",".",".",".",".",".",".",".",".",".",".","."],[".",".",".",".",3,2,1,4,".",".",".",".",".",".",".",".",".",".",".",".",".",".",".","."],[3,2,4,1,".",".",".",".",".",".",".",".",".",".",".",".",".",".",".",".",".",".",".","."]],[[".",".",".",".",".",".",".",".",".",".",".",".",".",".",".",".",".",".",".",".",4,1,3,2],[".",".",".",".",".",".",".",".",".",".",".",".",".",".",".",".",4,1,2,3,".",".",".","."],[".",".",".",".",".",".",".",".",".",".",".",".",4,2,3,1,".",".",".",".",".",".",".","."],[".",".",".",".",".",".",".",".",4,2,1,3,".",".",".",".",".",".",".",".",".",".",".","."],[".",".",".",".",4,3,1,2,".",".",".",".",".",".",".",".",".",".",".",".",".",".",".","."],[4,3,2,1,".",".",".",".",".",".",".",".",".",".",".",".",".",".",".",".",".",".",".","."]]],"numberofstrings":6,"notes":["E","B","G","D","A","E","B"],"capo":0,"stringnotes":["E4","B3","G3","D3","A2","E2"],"comments":["Stave 1:","Stave 2:","Stave 3:","Stave 4:"],"timing":[["W","W","W","W","W","W","W","W","W","W","W","W","W","W","W","W","W","W","W","W","W","W","W","W"],["W","W","W","W","W","W","W","W","W","W","W","W","W","W","W","W","W","W","W","W","W","W","W","W"],["W","W","W","W","W","W","W","W","W","W","W","W","W","W","W","W","W","W","W","W","W","W","W","W"],["W","W","W","W","W","W","W","W","W","W","W","W","W","W","W","W","W","W","W","W","W","W","W","W"]],"timingvisible":false,"tabcounter":24,"stave":3,"totalstaves":4,"instrument":"6guitar","selectedtuning":"6_standard","version":"13"}

Member for

2 weeks
Submitted by guitarhands on Wed, 2020-07-29 17:39