Jay Parrino Lesson 1

Chords

01234567891011121314151617181920212223
E
B
G
D
A
E
B
0 1 2 3 4 5 6 7 8 9 10 11 12 13 14 15 16 17 18 19 20 21 22 23
(/) Slide Up  (\) Slide Down  (h) Hammer On  (p) Pull Off  (b) Bend (r) Release (v) Vibrato

Stave 1:

E|---5-3-----3-------------------------------
B|-5-----5-3---3-----3-----------------------
G|---------------5-2---2-----2---------------
D|-----------------------5-2---2-----2-------
A|-------------------------------5-3---3-----
E|---------------------------------------5-3-

Stave 2:

E|---8-5-----5-------------------------------
B|-8-----8-5---5-----5-----------------------
G|---------------7-5---5-----5---------------
D|-----------------------7-5---5-----5-------
A|-------------------------------7-5---5-----
E|---------------------------------------8-5-

Stave 3:

E|----10-8------8----------------------------------
B|-10------10-8---8-----8--------------------------
G|------------------9-7---7------7-----------------
D|--------------------------10-7---7------7--------
A|-----------------------------------10-7---7------
E|--------------------------------------------10-8-

Stave 4:

E|----12-10-------10-------------------------------------------
B|-13-------13-10----10------10--------------------------------
G|----------------------12-9----9-------9----------------------
D|--------------------------------12-10---10-------10----------
A|-------------------------------------------12-10----10-------
E|-------------------------------------------------------12-10-

Stave 5:

E|----15-12-------12----------------------------------------------
B|-15-------15-13----13-------13----------------------------------
G|----------------------14-12----12-------12----------------------
D|----------------------------------14-12----12-------12----------
A|----------------------------------------------15-12----12-------
E|----------------------------------------------------------15-12-

							http://www.guitartabcreator.com
Instruments
{"strings":[[[".",5,3,".",".",3,".",".",".",".",".",".",".",".",".",".",".",".",".",".","."],[5,".",".",5,3,".",3,".",".",3,".",".",".",".",".",".",".",".",".",".","."],[".",".",".",".",".",".",".",5,2,".",2,".",".",2,".",".",".",".",".",".","."],[".",".",".",".",".",".",".",".",".",".",".",5,2,".",2,".",".",2,".",".","."],[".",".",".",".",".",".",".",".",".",".",".",".",".",".",".",5,3,".",3,".","."],[".",".",".",".",".",".",".",".",".",".",".",".",".",".",".",".",".",".",".",5,3]],[[".",8,5,".",".",5,".",".",".",".",".",".",".",".",".",".",".",".",".",".","."],[8,".",".",8,5,".",5,".",".",5,".",".",".",".",".",".",".",".",".",".","."],[".",".",".",".",".",".",".",7,5,".",5,".",".",5,".",".",".",".",".",".","."],[".",".",".",".",".",".",".",".",".",".",".",7,5,".",5,".",".",5,".",".","."],[".",".",".",".",".",".",".",".",".",".",".",".",".",".",".",7,5,".",5,".","."],[".",".",".",".",".",".",".",".",".",".",".",".",".",".",".",".",".",".",".",8,5]],[[".",10,8,".",".",8,".",".",".",".",".",".",".",".",".",".",".",".",".",".","."],[10,".",".",10,8,".",8,".",".",8,".",".",".",".",".",".",".",".",".",".","."],[".",".",".",".",".",".",".",9,7,".",7,".",".",7,".",".",".",".",".",".","."],[".",".",".",".",".",".",".",".",".",".",".",10,7,".",7,".",".",7,".",".","."],[".",".",".",".",".",".",".",".",".",".",".",".",".",".",".",10,7,".",7,".","."],[".",".",".",".",".",".",".",".",".",".",".",".",".",".",".",".",".",".",".",10,8]],[[".",12,10,".",".",10,".",".",".",".",".",".",".",".",".",".",".",".",".",".","."],[13,".",".",13,10,".",10,".",".",10,".",".",".",".",".",".",".",".",".",".","."],[".",".",".",".",".",".",".",12,9,".",9,".",".",9,".",".",".",".",".",".","."],[".",".",".",".",".",".",".",".",".",".",".",12,10,".",10,".",".",10,".",".","."],[".",".",".",".",".",".",".",".",".",".",".",".",".",".",".",12,10,".",10,".","."],[".",".",".",".",".",".",".",".",".",".",".",".",".",".",".",".",".",".",".",12,10]],[[".",15,12,".",".",12,".",".",".",".",".",".",".",".",".",".",".",".",".",".","."],[15,".",".",15,13,".",13,".",".",13,".",".",".",".",".",".",".",".",".",".","."],[".",".",".",".",".",".",".",14,12,".",12,".",".",12,".",".",".",".",".",".","."],[".",".",".",".",".",".",".",".",".",".",".",14,12,".",12,".",".",12,".",".","."],[".",".",".",".",".",".",".",".",".",".",".",".",".",".",".",15,12,".",12,".","."],[".",".",".",".",".",".",".",".",".",".",".",".",".",".",".",".",".",".",".",15,12]]],"numberofstrings":6,"notes":["E","B","G","D","A","E","B"],"capo":0,"stringnotes":["E4","B3","G3","D3","A2","E2"],"comments":["Stave 1:","Stave 2:","Stave 3:","Stave 4:","Stave 5:"],"timing":[[null,null,null,null,null,null,null,null,null,null,"W","W","W","W","W","W","W","W","W","W","W"],["W","W","W","W","W","W","W","W","W","W","W","W","W","W","W","W","W","W","W","W","W"],["W","W","W","W","W","W","W","W","W","W","W","W","W","W","W","W","W","W","W","W","W"],["W","W","W","W","W","W","W","W","W","W","W","W","W","W","W","W","W","W","W","W","W"],["W","W","W","W","W","W","W","W","W","W","W","W","W","W","W","W","W","W","W","W","W"]],"timingvisible":false,"tabcounter":21,"stave":4,"totalstaves":5,"instrument":"6guitar","selectedtuning":"6_standard","version":"13"}

Member for

3 days 9 hours
Submitted by guitarhands on Wed, 2020-07-29 17:19