Sound will begin in 5 seconds

Sleeping With A Harlot

01234567891011121314151617181920212223
E
B
G
D
A
E
B
0 1 2 3 4 5 6 7 8 9 10 11 12 13 14 15 16 17 18 19 20 21 22 23
Song Science #1: How Pros Use 6 Chords to Write Hit Songs
(/) Slide Up  (\) Slide Down  (h) Hammer On  (p) Pull Off  (b) Bend (r) Release (v) Vibrato

Stave 1:

D|-------------------------
A|-------------------------
F|-------------------------
C|-------------------------
D|-------------------------
C|-3-5-5-7-7-8-10-8-10-8-7-

Stave 2:

D|-----------------------------------------------------
A|-----------------------------------------------------
F|-----------------------------------------------------
C|-----------------------------------------------------
D|-----------------------------------------------------
C|-5-5-5-5-5-5-7-7-7-7-7-7-8-8-8-8-8-8-10-10-10-10-8-7-

Stave 3:

D|---------------------
A|---------------------
F|---------------------
C|---------------------
D|---------------------
C|-0-0-0-0-0-0-0-0-0-0-

Stave 4:

D|------------------------------
A|------------------------------
F|------------------------------
C|-------------------------7-10-
D|---------------------7-8------
C|-0-0-0-0-0-0-0-0-0-0----------

Stave 5:

D|------------------------------------------------------------------------------------------------------------
A|------------------------------------------------------------------------------------------------------------
F|------------------------------------------------------------------------------------------------------------
C|-----0-----0-----0-----0-----0-----0-----7-7-----7-----7-----7-----8-----8-----8-----8-----8-------10-------
D|---0-----0-----0-----0-----0-----0-----7-------7-----7-----7-----8-----8-----8-----8-----8------10-------10-
C|-0-----0-----0-----0-----0-----0-----7-------7-----7-----7-----8-----8-----8-----8-----8-----10-------10----

Stave 6:

D|---------------------------------------------------
A|---------------------------------------------------
F|---------------------------------------------------
C|-------10-------10-----8-----8-----8-----8-----7---
D|----10-------10------8-----8-----8-----8-----7-----
C|-10-------10-------8-----8-----8-----8-----7-----0-

http://www.guitartabcreator.com
Guitar Tab Creator is intended to store guitar tab created through the tool. It currently does not support in-line text editing. Any text you place in here will be lost. If you need to comment on your tab, please use the "Tab Notes" section located below.