Sound will begin in 5 seconds

Highway to Hell Into Solo (Live in Donnington '91) By Mike Gross

01234567891011121314151617181920212223
E
B
G
D
A
E
B
0 1 2 3 4 5 6 7 8 9 10 11 12 13 14 15 16 17 18 19 20 21 22 23
Song Science #1: How Pros Use 6 Chords to Write Hit Songs
(/) Slide Up  (\) Slide Down  (h) Hammer On  (p) Pull Off  (b) Bend (r) Release (v) Vibrato

Stave 1:

E|----------------------------------------------------------|------------------------|-
B|-----0-2-0-2-0-2-0-2-0-2-0-2-0-2-0-2-0-5-0-5-0-2-0-2-0-2v-|------------------------|-
G|----------------------------------------------------------|---5---7b8---5-----7b8v-|-
D|-2-2------------------------------------------------------|-7---7-----7---7p5------|-
A|-0-0------------------------------------------------------|------------------------|-
E|----------------------------------------------------------|------------------------|-

Stave 2:

E|-------5--------------------|-5------------|-
B|-----5---8-5-------5-8-8b9v-|---8-5--------|-
G|-7b8---------7b7-7----------|-------7b8p5v-|-
D|----------------------------|--------------|-
A|----------------------------|--------------|-
E|----------------------------|--------------|-

http://www.guitartabcreator.com
Guitar Tab Creator is intended to store guitar tab created through the tool. It currently does not support in-line text editing. Any text you place in here will be lost. If you need to comment on your tab, please use the "Tab Notes" section located below.