Sound will begin in 5 seconds

A7X- Second Heartbeat solo tabbed by Chris Zoupa (/watch?v=d3D0VGPAKUs)

01234567891011121314151617181920212223
E
B
G
D
A
E
B
0 1 2 3 4 5 6 7 8 9 10 11 12 13 14 15 16 17 18 19 20 21 22 23
Song Science #1: How Pros Use 6 Chords to Write Hit Songs
(/) Slide Up  (\) Slide Down  (h) Hammer On  (p) Pull Off  (b) Bend (r) Release (v) Vibrato

Stave 1:

E|------------------------8/10------------------11--13--13/15--13--11------------------------------|--
B|--8/13------------------------11----------11-------------------------13--13h15--13--11--11/13\8--|--
G|--------12------8p7--8------------10--10---------------------------------------------------------|--
D|-------------------------------------------------------------------------------------------------|--
A|------------10-----------------------------------------------------------------------------------|--
E|-------------------------------------------------------------------------------------------------|--

Stave 2:

E|--8------------|----------------------------------|--
B|-----8---------|----------------------------------|--
G|--------8\7----|--10--7---------------------------|--
D|---------------|---------10--8------8----9----10--|--
A|---------------|----------------------------------|--
E|---------------|----------------------------------|--

http://www.guitartabcreator.com
Guitar Tab Creator is intended to store guitar tab created through the tool. It currently does not support in-line text editing. Any text you place in here will be lost. If you need to comment on your tab, please use the "Tab Notes" section located below.