Sound will begin in 5 seconds

Alone

01234567891011121314151617181920212223
E
B
G
D
A
E
B
0 1 2 3 4 5 6 7 8 9 10 11 12 13 14 15 16 17 18 19 20 21 22 23
Song Science #1: How Pros Use 6 Chords to Write Hit Songs
(/) Slide Up  (\) Slide Down  (h) Hammer On  (p) Pull Off  (b) Bend (r) Release (v) Vibrato

Stave 1:

E|-----------------------------------------------
B|-----------------------------------------------
G|---7-4h5p4-----------4-----0-----------0-------
D|-----------5-------5-----4---4---4---4---4---4-
A|-7-----------5-0-3-----5-------5---3-------3---
E|-----------------------------------------------

Stave 2:

E|-3-0-3-1-
B|-3-3-1-1-
G|-0-0-0-2-
D|-0-2-2-3-
A|-2-2-3-3-
E|-3-0-0-1-

Stave 3:

E|-3-3-5-3-
B|-1-3-3-3-
G|-0-0-2-0-
D|-2-2-0-0-
A|-3-2---2-
E|-0-0---3-

Stave 4:

E|-----9-7h8p7-----------7-----3-----------3-------
B|-------------8-------8-----7---7---7---7---7---7-
G|---9-----------7-2-5-----7-------7---5-------5---
D|-------------------------------------------------
A|--\7---------------------------------------------
E|-------------------------------------------------

Stave 5:

E|----9---9---9-9---9-9---9---9---9---9---9---9---9---9---8---8---8---8-
B|----------------------------------------------------------------------
G|--9---9---9-----9-----7---7---7---7---6---6---6---6---5---5---5---5---
D|----------------------------------------------------------------------
A|----------------------------------------------------------------------
E|----------------------------------------------------------------------

Stave 6:

E|--10-7-7h8p7-------3-
B|--7--9-------9-----2-
G|--9--8---------8---0-
D|-----------------5-5-
A|---------------------
E|---------------------

Stave 7:

E|------------
B|------------
G|--9-9-5-7-5-
D|--9-7-5-7-5-
A|--7-7-3-5-3-
E|------------

Stave 8:

E|------------
B|------------
G|--12-10-9-7-
D|--x--x--x-x-
A|--10-8--7-5-
E|------------

Stave 9:

E|------------------------------
B|------------------------------
G|--7-9-10-5-9-10-12-9-10-9-5-7-
D|------------------------------
A|--5-7-8--3-7-8--10-7-8--7-3-5-
E|------------------------------

http://www.guitartabcreator.com
Guitar Tab Creator is intended to store guitar tab created through the tool. It currently does not support in-line text editing. Any text you place in here will be lost. If you need to comment on your tab, please use the "Tab Notes" section located below.