Tadow main theme

Chords

01234567891011121314151617181920212223
E
B
G
D
A
E
B
0 1 2 3 4 5 6 7 8 9 10 11 12 13 14 15 16 17 18 19 20 21 22 23
(/) Slide Up  (\) Slide Down  (h) Hammer On  (p) Pull Off  (b) Bend (r) Release (v) Vibrato

Stave 1:

E|--------------------------------------------------------------------------10h12p10----------
B|--------------12--------------------------------------10--------------10------------10------
G|----------12------12--------------12--------------10------10------10--------------------10--
D|------10--------------10------10--------------10--------------10----------------------------
A|--12----------------------------------------------------------------------------------------
E|--------------------------12----------11--10------------------------------------------------

Stave 2:

E|-------------------------------------------------------------------------------------------
B|--------------12--------------------------------------10-----------------------------------
G|----------12------12--------------12--------------10------10------10-----------------------
D|------10--------------10------10--------------10--------------10------10h12p10------12/14--
A|--12----------------------------------------------------------------------------12---------
E|--------------------------12----------11--10-----------------------------------------------

							http://www.guitartabcreator.com
Instruments
{"strings":[[[".",".",".",".",".",".",".",".",".",".",".",".",".",".",".",".",".",".",10,"h",12,"p",10,".","."],[".",".",".",12,".",".",".",".",".",".",".",".",".",10,".",".",".",10,".",".",".",".",".",10,"."],[".",".",12,".",12,".",".",".",12,".",".",".",10,".",10,".",10,".",".",".",".",".",".",".",10],[".",10,".",".",".",10,".",10,".",".",".",10,".",".",".",10,".",".",".",".",".",".",".",".","."],[12,".",".",".",".",".",".",".",".",".",".",".",".",".",".",".",".",".",".",".",".",".",".",".","."],[".",".",".",".",".",".",12,".",".",11,10,".",".",".",".",".",".",".",".",".",".",".",".",".","."]],[[".",".",".",".",".",".",".",".",".",".",".",".",".",".",".",".",".",".",".",".",".",".",".",".",".","."],[".",".",".",12,".",".",".",".",".",".",".",".",".",10,".",".",".",".",".",".",".",".",".",".",".","."],[".",".",12,".",12,".",".",".",12,".",".",".",10,".",10,".",10,".",".",".",".",".",".",".",".","."],[".",10,".",".",".",10,".",10,".",".",".",10,".",".",".",10,".",10,"h",12,"p",10,".",12,"/",14],[12,".",".",".",".",".",".",".",".",".",".",".",".",".",".",".",".",".",".",".",".",".",12,".",".","."],[".",".",".",".",".",".",12,".",".",11,10,".",".",".",".",".",".",".",".",".",".",".",".",".",".","."]]],"numberofstrings":6,"notes":["E","B","G","D","A","E","B"],"capo":0,"stringnotes":["E4","B3","G3","D3","A2","E2"],"comments":["Stave 1:","Stave 2:"],"timing":[[null,null,null,null,null,null,null,null,null,null,null,null,null,null,null,null,null,null,null,null,null,null,null,null,null],[null,null,null,null,null,null,null,null,null,null,null,null,null,null,null,null,null,null,null,null,null,null,null,null,null,null]],"timingvisible":false,"tabcounter":26,"stave":1,"totalstaves":2,"instrument":"6guitar","selectedtuning":"6_standard","version":"13"}

Member for

1 week 6 days
About Me
I'm a musician who posts covers, loops and music videos on YouTube by the username of "Guitar Feels"
Submitted by guitarfeels on Thu, 2020-11-19 11:24