Sound will begin in 5 seconds

What Are You Thinking? - Self

Chords
01234567891011121314151617181920212223
E
B
G
D
A
E
B
0 1 2 3 4 5 6 7 8 9 10 11 12 13 14 15 16 17 18 19 20 21 22 23
Song Science #1: How Pros Use 6 Chords to Write Hit Songs
(/) Slide Up  (\) Slide Down  (h) Hammer On  (p) Pull Off  (b) Bend (r) Release (v) Vibrato

Stave 1:

E|--------------------------------------------------------------------------------------------------
B|-----3--3-----6--6--6-----3--3--3-----------------3--3-----6--6--6-----3--3--3--------------------
G|-----2--2-----5--5--5-----2--2--2-----2-----2-----2--2-----5--5--5-----2--2--2-----2--5--5--2--2--
D|-----3--3-----6--6--6-----3--3--3-----------------3--3-----6--6--6-----3--3--3--------------------
A|-----1--1-----4--4--4-----1--1--1-----------------1--1-----4--4--4-----1--1--1--------------------
E|--------------------------------------------------------------------------------------------------

Stave 2:

E|-----------------------------------------------------------------------------------------------
B|--3--3-----6--6--6-----3--3--3-----------------3--3-----6--6--6-----3--3--3--------------------
G|--2--2-----5--5--5-----2--2--2-----2-----2-----2--2-----5--5--5-----2--2--2-----2--5--5--2--0--
D|--3--3-----6--6--6-----3--3--3-----------------3--3-----6--6--6-----3--3--3--------------------
A|--1--1-----4--4--4-----1--1--1-----------------1--1-----4--4--4-----1--1--1--------------------
E|-----------------------------------------------------------------------------------------------

Stave 3:

E|-----------------------------------------------------------------------------------------------
B|-----------------------------------------------------------------------------------------------
G|--------------------------------------------------------------------------------------4--7--6--
D|--7--4--5-----4--5-----5-----3--5-----3--5-----5-----4--5-----4--5-----5-----4--5--7-----------
A|-----------5--------5-----4--------4--------4-----5--------5--------5-----5--------------------
E|-----------------------------------------------------------------------------------------------

Stave 4:

E|-----------------------------------------------------------------------------------------------
B|-----------------------------------------------------------------------------------------------
G|--------------------------------------------------------------------------------------4--7--6--
D|--7--4--5-----4--5-----5-----3--5-----3--5-----5-----4--5-----4--5-----5-----4--5--7-----------
A|-----------5--------5-----4--------4--------4-----5--------5--------5-----5--------------------
E|-----------------------------------------------------------------------------------------------

Stave 5:

E|--------------------------------------------------------------------8--------8-----8-----5--7-----------
B|-----------------------------------------------------------------------8--7-----7-----7--------5--6--7--
G|--5--5--------------------------------------------5--5--------------------------------------------------
D|--5--5-----4--4--4-----2--2--2--2--7--7--3--3-----5--5-----4--4--4--------------------------------------
A|--3--3-----4--4--4-----2--2--2--2--7--7--3--3-----3--3-----4--4--4--------------------------------------
E|-----------2--2--2-----0--0--0--0--5--5--1--1--------------2--2--2--------------------------------------

Stave 6:

E|--------------------------------------------------------------------------------------
B|--------------------------------------------------------------------------------------
G|--5--5--------------------------------------------5--5--------------------------------
D|--5--5-----4--4--4-----2--2--2--2--7--7--3--3-----5--5-----6--10-----5--6--6/8--8/10--
A|--3--3-----4--4--4-----2--2--2--2--7--7--3--3-----3--3-----6--10----------------------
E|-----------2--2--2-----0--0--0--0--5--5--1--1--------------4--8-----------------------

Stave 7:

E|--------------------------------------------------------------------------------------------------
B|--------------------------------------------------------------------------------------------------
G|--------0--------0-----0--------0--------0-----0--------0--------0-----0--------0--------0--------
D|-----4--------4--------------3--------3--------------4--------4--------------4--------------------
A|--5--------5--------5--------------4--------4-----5--------5--------5-----5-----------4-----------
E|--------------------------5--------------------------------------------------------2--------2--0--

Stave 8:

E|--------------------------------------------------------------------------------------------------
B|--------------------------------------------------------------------------------------------------
G|--------0--------0-----0--------0--------0-----0--------0--------0-----0--------0--------0--------
D|-----4--------4--------------3--------3--------------4--------4--------------4--------------------
A|-----------5--------5--------------4--------4-----5--------5--------5-----5-----------4-----------
E|--5-----------------------5--------------------------------------------------------2--------2--0--

Stave 9:

E|-----------------------------------------------------------------------------------------------
B|-----------------------------------------------------------------------------------------------
G|-----------7--7--7--7--7-----------6--6--6--6--6--7--7--7--7--7--7--7--7-----------------------
D|--7--7--7--7--7--7--7--7--7--7--7--6--6--6--6--6--7--7--7--7--7--7--7--7-----------------------
A|--7--7--7--5--5--5--5--5--7--7--7--4--4--4--4--4--5--5--5--5--5--5--5--5--5--4--2--------------
E|--5--5--5-----------------5--5--5--------------------------------------------------2-----2--0--

http://www.guitartabcreator.com
Guitar Tab Creator is intended to store guitar tab created through the tool. It currently does not support in-line text editing. Any text you place in here will be lost. If you need to comment on your tab, please use the "Tab Notes" section located below.