Sound will begin in 5 seconds

Song in A minor

01234567891011121314151617181920212223
E
B
G
D
A
E
B
0 1 2 3 4 5 6 7 8 9 10 11 12 13 14 15 16 17 18 19 20 21 22 23
Song Science #1: How Pros Use 6 Chords to Write Hit Songs
(/) Slide Up  (\) Slide Down  (h) Hammer On  (p) Pull Off  (b) Bend (r) Release (v) Vibrato

Stave 1:

E|-------------------------------------------------------------
B|-------------------------------------------------------------
G|-------5-4b--------------------5-4b4-5-5h7-5-4/9---------5-4b
D|-----7-----5-----------------7-------------------------7-----
A|---7---------5-5h7-0-0-0---7---------------------0---7-------
E|-5-----------------------5-------------------------5---------

Stave 2:

E|---------------------------------------------------------------------
B|------6/8-6-5-5h6-6-6p5-6/10-----------------------------------------
G|--4h5------------------------------5-4-------4-2b------2-1h2p1-1h2/9-
D|---------------------------------7---------5---------3---------------
A|-------------------------------7---------5---------3-----------------
E|-----------------------------5---------3---------1-------------------

Stave 3:

E|-
B|-
G|-
D|-
A|-
E|-

http://www.guitartabcreator.com
Guitar Tab Creator is intended to store guitar tab created through the tool. It currently does not support in-line text editing. Any text you place in here will be lost. If you need to comment on your tab, please use the "Tab Notes" section located below.