Sound will begin in 5 seconds

Out of touch

01234567891011121314151617181920212223
E
B
G
D
A
E
B
0 1 2 3 4 5 6 7 8 9 10 11 12 13 14 15 16 17 18 19 20 21 22 23
Song Science #1: How Pros Use 6 Chords to Write Hit Songs
(/) Slide Up  (\) Slide Down  (h) Hammer On  (p) Pull Off  (b) Bend (r) Release (v) Vibrato

Stave 1:

E|-------------|-------------|-------------|-----------------------|-
B|-------------|-------------|-------------|-----------------------|-
G|-----7-6-7-6-|-----7-6-7-6-|-----7-6-7-6-|-----------------------|-
D|-5-5-7-7-7-7-|-5-5-7-7-7-7-|-5-5-7-7-7-7-|-5-5-5/7-2-2-2-2-2-2-2-|-
A|-5-5-5-5-5-5-|-5-5-5-5-5-5-|-5-5-5-5-5-5-|-5-5-----2-2-2-2-2-2-2-|-
E|-3-3---------|-3-3---------|-3-3---------|-3-3-----0-0-0-0-0-0-0-|-

Stave 2:

E|---------------------------------------------|---------8-------------|-------------18b15-
B|---------------------------------------------|---6-6-8---8b6-3---6b3-|-11/18-15-18-------
G|---3-5-5-5-5-5-5-5-5-5-5-5-5-5-5-5-3p0---3b0-|-7---------------5-----|-------------------
D|-5-------------------------------------3-----|-----------------------|-------------------
A|---------------------------------------------|-----------------------|-------------------
E|---------------------------------------------|-----------------------|-------------------

Stave 3:

E|-18b15-|-18-15-18-15----------------------------------|----------------------------------
B|-------|-------------18-16-15-------------------------|-18p16p15-18p16p15-18p16p15-18p16p
G|-------|----------------------17-15-14-14h15p14----12b|----------------------------------
D|-------|----------------------------------------15----|----------------------------------
A|-------|----------------------------------------------|----------------------------------
E|-------|----------------------------------------------|----------------------------------

Stave 4:

E|-------18----|------------
B|-15-18----18b|-18-15---15-
G|-------------|---------17-
D|-------------|------------
A|-------------|------------
E|-------------|------------

http://www.guitartabcreator.com
Guitar Tab Creator is intended to store guitar tab created through the tool. It currently does not support in-line text editing. Any text you place in here will be lost. If you need to comment on your tab, please use the "Tab Notes" section located below.