Sound will begin in 5 seconds

Custom rock guitar licks for soloing

01234567891011121314151617181920212223
E
B
G
D
A
E
B
0 1 2 3 4 5 6 7 8 9 10 11 12 13 14 15 16 17 18 19 20 21 22 23
Song Science #1: How Pros Use 6 Chords to Write Hit Songs
(/) Slide Up  (\) Slide Down  (h) Hammer On  (p) Pull Off  (b) Bend (r) Release (v) Vibrato

Stave 1:

E|-5-----------------5-----------|-----------------------------------|---8-------
B|---8p5-8p5---5---5---8p5-8p5-8b|---------------------------------8b|-8b--8-5---
G|-----------7b--7b--------------|-5-7p5-8p7p5-2-5-2-5-8-7-5---5-8---|---------7-
D|-------------------------------|---------------------------7-------|-----------
A|-------------------------------|-----------------------------------|-----------
E|-------------------------------|-----------------------------------|-----------

Stave 2:

E|------------|-
B|-5----------|-
G|---7b5---5v-|-
D|-------7----|-
A|------------|-
E|------------|-

http://www.guitartabcreator.com
Guitar Tab Creator is intended to store guitar tab created through the tool. It currently does not support in-line text editing. Any text you place in here will be lost. If you need to comment on your tab, please use the "Tab Notes" section located below.