Sound will begin in 5 seconds

Acoustic song in Dm

01234567891011121314151617181920212223
E
B
G
D
A
E
B
0 1 2 3 4 5 6 7 8 9 10 11 12 13 14 15 16 17 18 19 20 21 22 23
Song Science #1: How Pros Use 6 Chords to Write Hit Songs
(/) Slide Up  (\) Slide Down  (h) Hammer On  (p) Pull Off  (b) Bend (r) Release (v) Vibrato

Stave 1:

E|-1-----1-----3-1-0-----0-----1-0-------------1-0---|-
B|-----3---3-----------------------1---0-1-----------|-
G|---2-------2---------0---0---------2-----2-------1-|-
D|-0-----0-----0-0---2---2---2-0---3---------3-----2-|-
A|-----------------3-------------------------------2-|-
E|-------------------------------------------------0-|-

Stave 2:

E|-0h1p0-----0------|-0h1p0-----0---3/5-|-0h1p0-----0-------------|-
B|-------3p0--------|-------3p0---------|-------3p0---------------|-
G|-------------2-2v-|-------------2-----|-------------------------|-
D|------------------|-------------------|-------------------------|-
A|------------------|-------------------|-------------3-2-0-----0-|-
E|------------------|-------------------|-------------------3-3---|-

Stave 3:

E|-13p12p10-12p10-------|-13p12p10-12p10-13b|-13p12p10----10--------------|-
B|----------------13b10-|-------------------|----------13----11-10-8----8b|-
G|----------------------|-------------------|------------------------10---|-
D|----------------------|-------------------|-----------------------------|-
A|----------------------|-------------------|-----------------------------|-
E|----------------------|-------------------|-----------------------------|-

Stave 4:

E|-------------------|-------------|----------------16----|-----------------|-
B|-------------------|-------------|-------14-16-16b---16-|-14\11----11-14v-|-
G|-10p7-10p7-10p7-10b|-10p7----7-7-|-13-15----------------|-------13--------|-
D|-------------------|------10-----|----------------------|-----------------|-
A|-------------------|-------------|----------------------|-----------------|-
E|-------------------|-------------|----------------------|-----------------|-

http://www.guitartabcreator.com
Guitar Tab Creator is intended to store guitar tab created through the tool. It currently does not support in-line text editing. Any text you place in here will be lost. If you need to comment on your tab, please use the "Tab Notes" section located below.