Sound will begin in 5 seconds

Witchcraft

01234567891011121314151617181920212223
E
B
G
D
A
E
B
0 1 2 3 4 5 6 7 8 9 10 11 12 13 14 15 16 17 18 19 20 21 22 23
Song Science #1: How Pros Use 6 Chords to Write Hit Songs
(/) Slide Up  (\) Slide Down  (h) Hammer On  (p) Pull Off  (b) Bend (r) Release (v) Vibrato

Stave 1:

E|---------------------------------------------------
B|---------------------------------------------------
G|---------------------------------------------------
D|---------------------------------------------------
A|----------------3-----------------------3----------
E|----0--5-----------3--------0--5-----------3----2--

Stave 2:

E|------------------------------------------------------------------------
B|------------------------------------------------------------------------
G|------------------------------------------------------------------------
D|------------------------------------------------------------------------
A|-------------------------------------3----3--3----2--3--5----5--5----3--
E|--0--5----5--5--3--5----5--5----5---------------------------------------

Stave 3:

E|----------------------------------------------------------
B|----------------------------------------------------------
G|----------------------------------------------------------
D|----------------------------------------------------------
A|----------------------------------------------------------
E|--5----5--5----3--5----5--5--5----3----3--3----2----2--2--

Stave 4:

E|-------------------------------------------
B|-------------------------------------------
G|-------------------------------------------
D|-------------------------------------------
A|-------------------------------------------
E|--5--3--1------5--3--1------5--3--1--3--0--

Stave 5:

E|--------------------------------------------------
B|--------------------------------------------------
G|--------------------------------------------------
D|--------------------------2--2----2--0------------
A|--0--0----0--2--0--2h3h4------------------4----2--
E|--------------------------------------------------

Stave 6:

E|---------------------------------
B|---------------------------------
G|---------------------------------
D|---------------------------------
A|---------------------------------
E|--0----2----3----4----5--5----5--

Stave 7:

E|-----------------------------------------------------------------------------
B|-----------------------------------------------------------------------------
G|-----------------------------------------------------------------------------
D|-----------------------------------------------------------------------------
A|--3--------------------------5--------3--------2-----------------5--------3--
E|-----------5--------0-----------------------------------0--------------------

Stave 8:

E|--------------------------------------------
B|--------------------------------------------
G|--------------------------------------------
D|-------------------------------------1h2p1--
A|--2----2--2h3p2p0--2----2--2--2h3p2---------
E|--------------------------------------------

Stave 9:

E|---------------------------------------------------
B|---------------------------------------------------
G|---------------------------------------------------
D|-------------------------------1h2p1---------------
A|--2----2--2h3p2p0--2----2h3p2----------------------
E|--------------------------------------3--2--1------

Stave 10:

E|----------------------------------------------------------------------------------
B|----------------------------------------------------------------------------------
G|----------------------------------------------------------------------------------
D|----------------------------------------------------------------------------------
A|-------------7-------------------5-------------------4-------------------2--------
E|--0----0--0-----0--0--0----0--0-----0--0--0----0--0-----0--0--0----0--0-----0--0--

Stave 11:

E|----------------------------------------------------------
B|----------------------------------------------------------
G|----------------------------------------------------------
D|----------------------------------------------------------
A|------------7--7--7--7--7--7------------7--7--7--8--8--8--
E|--0----0----------------------0----0----------------------

Stave 12:

E|----------------------------------------------------------
B|----------------------------------------------------------
G|----------------------------------------------------------
D|----------------------------------------------------------
A|------------7--7--7--7----7--7--7--7----7--7--7--8--8--8--
E|--0----0--------------------------------------------------

http://www.guitartabcreator.com
Guitar Tab Creator is intended to store guitar tab created through the tool. It currently does not support in-line text editing. Any text you place in here will be lost. If you need to comment on your tab, please use the "Tab Notes" section located below.