Sound will begin in 5 seconds

Dusk pt.1

01234567891011121314151617181920212223
E
B
G
D
A
E
B
0 1 2 3 4 5 6 7 8 9 10 11 12 13 14 15 16 17 18 19 20 21 22 23
Song Science #1: How Pros Use 6 Chords to Write Hit Songs
(/) Slide Up  (\) Slide Down  (h) Hammer On  (p) Pull Off  (b) Bend (r) Release (v) Vibrato

Stave 1:

G|-------4-------------------------------------
D|-------------------------------2----------5--
A|--2---------2--2-----------------------------
E|--------------------------0-------0--3-------
B|---------------------------------------------

Stave 2:

G|------------------------------------
D|-------2------------4h5p4-----------
A|---------------------------5--------
E|--0---------0--3--------------3--5--
B|------------------------------------

Stave 3:

G|-------------------------------------------------------------------------
D|-------------------------------------------------------------------------
A|------------5-------------------------5-------------------------5--------
E|--7--7---------7--7------5--7--7---------7--7------5--7--7---------7--7--
B|-------------------------------------------------------------------------

Stave 4:

G|-----------------------------------------------------------------------------------
D|-----------------------------------------------------------------------------------
A|---------------3-------------------------3-------------------------3---------------
E|--0--5--5---------5--5------3--5--5---------5--5------0--5--5---------5--5------5--
B|-----------------------------------------------------------------------------------

Stave 5:

G|------------------------------------------------
D|------------------------------------------------
A|------------------------------------------------
E|--7--7----3--3----0----------7--7----3--3----4--
B|------------------------------------------------

Stave 6:

G|-----------------------------------------
D|-----------------------------------------
A|-------------6----------------6----------
E|--8-------------6--8-------------7--7b8--
B|-----------------------------------------

Stave 7:

G|---------------------------------
D|---------------------------------
A|---------------------------------
E|--8------------------6------6/8--
B|---------------------------------

Stave 8:

G|-------------------------------------------------
D|-------------------------------------------------
A|--3------3----3------3----3------3--1------1--3--
E|-------------------------------------------------
B|-------------------------------------------------

Stave 9:

G|-----------------------------------------------------
D|-----------------------------------------------------
A|--------------------------------------1------1-------
E|-----------------------------------------------------
B|--1------1----1------1----1------1----------------1--

http://www.guitartabcreator.com
Guitar Tab Creator is intended to store guitar tab created through the tool. It currently does not support in-line text editing. Any text you place in here will be lost. If you need to comment on your tab, please use the "Tab Notes" section located below.