Four Bar Shuffle in A

01234567891011121314151617181920212223
E
B
G
D
A
E
B
0 1 2 3 4 5 6 7 8 9 10 11 12 13 14 15 16 17 18 19 20 21 22 23
(/) Slide Up  (\) Slide Down  (h) Hammer On  (p) Pull Off  (b) Bend (r) Release (v) Vibrato

Stave 1:

E|--------------------------------------------------------------------------------------------------
B|--------------------------------------------------------------------------------------------------
G|--------------------------------------------------2--2--4--4--2--2--4--4--2--2--4--4--2--2--4--4--
D|--2--2--4--4--2--2--4--4--2--2--4--4--2--2--4--4--0--0--0--0--0--0--0--0--0--0--0--0--0--0--0--0--
A|--0--0--0--0--0--0--0--0--0--0--0--0--0--0--0--0--------------------------------------------------
E|--------------------------------------------------------------------------------------------------

Stave 2:

E|--------------------------------------------------------------------------------------------------
B|--------------------------------------------------------------------------------------------------
G|--------------------------------------------------------------------------2--2--4--4--2--2--4--4--
D|--2--2--4--4--2--2--4--4--2--2--4--4--2--2--4--4--------------------------0--0--0--0--0--0--0--0--
A|--0--0--0--0--0--0--0--0--0--0--0--0--0--0--0--0--2--2--4--4--2--2--4--4--------------------------
E|--------------------------------------------------0--0--0--0--0--0--0--0--------------------------

Stave 3:

E|--------------------------------------------------
B|--------------------------------------------------
G|--------------------------------------------------
D|--2--2--4--4--2--2--4--4--2--2--4--2--------------
A|--0--0--0--0--0--0--0--0--0--0--0--0--------------
E|--------------------------------------------------

							http://www.guitartabcreator.com
Chords

Tab Notes
First blues shuffle for beginner students.
Instruments
{"strings":[[[".",".",".",".",".",".",".",".",".",".",".",".",".",".",".",".",".",".",".",".",".",".",".",".",".",".",".",".",".",".",".","."],[".",".",".",".",".",".",".",".",".",".",".",".",".",".",".",".",".",".",".",".",".",".",".",".",".",".",".",".",".",".",".","."],[".",".",".",".",".",".",".",".",".",".",".",".",".",".",".",".",2,2,4,4,2,2,4,4,2,2,4,4,2,2,4,4],[2,2,4,4,2,2,4,4,2,2,4,4,2,2,4,4,0,0,0,0,0,0,0,0,0,0,0,0,0,0,0,0],[0,0,0,0,0,0,0,0,0,0,0,0,0,0,0,0,".",".",".",".",".",".",".",".",".",".",".",".",".",".",".","."],[".",".",".",".",".",".",".",".",".",".",".",".",".",".",".",".",".",".",".",".",".",".",".",".",".",".",".",".",".",".",".","."]],[[".",".",".",".",".",".",".",".",".",".",".",".",".",".",".",".",".",".",".",".",".",".",".",".",".",".",".",".",".",".",".","."],[".",".",".",".",".",".",".",".",".",".",".",".",".",".",".",".",".",".",".",".",".",".",".",".",".",".",".",".",".",".",".","."],[".",".",".",".",".",".",".",".",".",".",".",".",".",".",".",".",".",".",".",".",".",".",".",".",2,2,4,4,2,2,4,4],[2,2,4,4,2,2,4,4,2,2,4,4,2,2,4,4,".",".",".",".",".",".",".",".",0,0,0,0,0,0,0,0],[0,0,0,0,0,0,0,0,0,0,0,0,0,0,0,0,2,2,4,4,2,2,4,4,".",".",".",".",".",".",".","."],[".",".",".",".",".",".",".",".",".",".",".",".",".",".",".",".",0,0,0,0,0,0,0,0,".",".",".",".",".",".",".","."]],[[".",".",".",".",".",".",".",".",".",".",".",".","_","_","_","_"],[".",".",".",".",".",".",".",".",".",".",".",".","_","_","_","_"],[".",".",".",".",".",".",".",".",".",".",".",".","_","_","_","_"],[2,2,4,4,2,2,4,4,2,2,4,2,"_","_","_","_"],[0,0,0,0,0,0,0,0,0,0,0,0,"_","_","_","_"],[".",".",".",".",".",".",".",".",".",".",".",".","_","_","_","_"]]],"numberofstrings":6,"notes":["E","B","G","D","A","E","B"],"capo":0,"stringnotes":["E4","B3","G3","D3","A2","E2"],"comments":["Stave 1:","Stave 2:","Stave 3:"],"timing":[[null,null,null,null,null,null,null,null,null,null,null,null,null,null,null,null,null,null,null,null,null,null,null,null,null,null,null,null,null,null,null,null],[null,null,null,null,null,null,null,null,null,null,null,null,null,null,null,null,null,null,null,null,null,null,null,null,null,null,null,null,null,null,null,null],[null,null,null,null,null,null,null,null,null,null,null,null]],"timingvisible":false,"tabcounter":16,"stave":2,"totalstaves":3,"instrument":"6guitar","selectedtuning":"6_standard","version":"13"}

Member for

1 month 2 weeks
About Me
Guitar player, teacher, and studio player.
Submitted by GtrJas1 on Thu, 2021-03-04 18:35