Sound will begin in 5 seconds

geni parte 2

01234567891011121314151617181920212223
E
B
G
D
A
E
B
0 1 2 3 4 5 6 7 8 9 10 11 12 13 14 15 16 17 18 19 20 21 22 23
Song Science #1: How Pros Use 6 Chords to Write Hit Songs
(/) Slide Up  (\) Slide Down  (h) Hammer On  (p) Pull Off  (b) Bend (r) Release (v) Vibrato

Stave 1:

E|--------------------------------------
B|-----------3-----------------4--------
G|--------1-----1-----------3-----3-----
D|-----3-----------3-----1-----------1--
A|--1-----------------------------------
E|--------------------3-----------------

Stave 2:

E|--------------------------------------
B|-----------3-----------------4--------
G|--------0-----0-----------5-----5-----
D|-----3-----------3-----5-----------5--
A|--2-----------------------------------
E|--------------------3-----------------

Stave 3:

E|--------------------
B|-----------3--------
G|--------5-----5-----
D|-----4-----------4--
A|--------------------
E|--4-----------------

Stave 4:

E|--------------------------------------
B|-----------4-----------------3--------
G|--------5-----5-----------5-----5-----
D|-----5-----------5-----4-----------4--
A|--0-----------------------------------
E|--------------------4-----------------

Stave 5:

E|--------------------------------------
B|-----------3-----------------3--------
G|--------3-----3-----------4-----4-----
D|-----3-----------3-----3-----------3--
A|--------------------------------------
E|--3-----------------3-----------------

Stave 6:

E|--------------------
B|-----------3--------
G|--------3-----3-----
D|-----3-----------3--
A|--------------------
E|--4-----------------

http://www.guitartabcreator.com
Guitar Tab Creator is intended to store guitar tab created through the tool. It currently does not support in-line text editing. Any text you place in here will be lost. If you need to comment on your tab, please use the "Tab Notes" section located below.