Sound will begin in 5 seconds

Are You Satisfied. Reignwolf. Live Music Midtown.

Chords
01234567891011121314151617181920212223
E
B
G
D
A
E
B
0 1 2 3 4 5 6 7 8 9 10 11 12 13 14 15 16 17 18 19 20 21 22 23
(/) Slide Up  (\) Slide Down  (h) Hammer On  (p) Pull Off  (b) Bend (r) Release (v) Vibrato

Stave 1:

E|--------x--------------------x------------------------------------0-----------------x------------------7-----------
B|--------x--------------------x------------------------------------0-----------------x---------------------10p7-----
G|--------x--------------------x------------------2h4p2p0-----------x-----------------x---------------------------9--
D|--------x--------------------x------------------------------------x-----------------x------------------------------
A|--------x--------------------x------------------------------------x-----------------x------------------------------
E|--0-----x-----0--------0--0--x--0-----5b---3b------------0-----0--x-----0--------0--x--0-----5b---3b---------------

Stave 2:

E|--------0------------------------------------------------0------------------------------------
B|--------0------------------------------------8-----------0------------------------------------
G|--------x------------------------------7--9--------------x--------------------------7---------
D|--------x------------------------7--9--------------------x---------------------7/9-----9p7\5--
A|--------x------------------------------------------------x------------------------------------
E|--0-----x-----0--------5b---3b---------------------0-----x-----0--------5b---3b---------------

Stave 3:

E|--------x---------------------------------------------------------------------------------------------------------------
B|--------x--------------------------------------------------------8------------------------------------------------------
G|--------x-----------7/9--7-----7------------------------7--7--9-----9--9p7-----7----------------------------------------
D|--------x-------------------9-----9v-----------------9----------------------9-----9--7--5--7----------------------------
A|--------x-------------------------------------------------------------------------------------7--5----------------------
E|--0-----x-----0--------------------------5-----3----------------------------------------------------7--5-----5v-----3v--

Stave 4:

E|-------------------7----------------------------------------------------------------------
B|-------------8--------10--10--10p8p7h8----------------------------------------------------
G|-----7--7p9-----9-----------------------9p7-----------------------------------------------
D|--9------------------------------------------9--7v----------------------------------------
A|------------------------------------------------------------------------------------------
E|----------------------------------------------------------5v-----------3v-----------------

Stave 5:

E|-------------------------------------------------
B|--------------------------------------14p12------
G|--------------------------------------14-12------
D|---------------------------------------------14--
A|-----------/7-----7--5---------------------------
E|--0--0--3h0----0--------7--5--3--5b3-------------

Stave 6:

E|----------------------------------------
B|----------------------------------------
G|----------------------------------------
D|----------------------------------7--5--
A|-------------7-----7--5-----------7--5--
E|--0--0--3h0-----0--------7--5--3--5--3--

Stave 7:

E|------------------------
B|------------------------
G|------------------------
D|------------------------
A|-------------7v---------
E|--0--0--3p0------5--3v--

Stave 8:

E|-------------
B|-------------
G|--7v---------
D|-------------
A|-------------
E|------5--3v--

http://www.guitartabcreator.com
Guitar Tab Creator is intended to store guitar tab created through the tool. It currently does not support in-line text editing. Any text you place in here will be lost. If you need to comment on your tab, please use the "Tab Notes" section located below.