Sound will begin in 5 seconds

Eviscerated

Chords
01234567891011121314151617181920212223
E
B
G
D
A
E
B
0 1 2 3 4 5 6 7 8 9 10 11 12 13 14 15 16 17 18 19 20 21 22 23
Song Science #1: How Pros Use 6 Chords to Write Hit Songs
(/) Slide Up  (\) Slide Down  (h) Hammer On  (p) Pull Off  (b) Bend (r) Release (v) Vibrato

Stave 1:

E|----------------------------------
B|----------------------------------
G|----------------------------------
D|----------------------------------
A|-2-----------2-1--2-----------5-6-
E|-0-0-0-0-1b0-3-2--0-0-0-0-1b0-3-4-

Stave 2:

E|-----------------------------------
B|-----------------------------------
G|-----------------------------------
D|-----------------------------------
A|--2-----------2-1--2-----------5-6----
E|--0-0-0-0-1-0-3-2--0-0-0-0-1-0-3-4-

Stave 3:

E|-----------------------------------
B|-----------------------------------
G|-----------------------------------
D|-----------------------------------
A|--2-----------2-1--2-----------5-6-
E|--0-0-0-0-1b0-3-2--0-0-0-0-1b0-3-4-

Stave 4:

E|----------------------------------
B|----------------------------------
G|----------------------------------
D|----------------------------------
A|-2-----------2-1--2-----------5-6-
E|-0-0-0-0-1b0-3-2--0-0-0-0-1b0-3-4-

Stave 5:

E|-------------------------------------------------
B|-------------------------------------------------
G|-------------------------------------------------
D|-------------------------------------------------
A|--2----------3-5---3-2----2----------------------
E|--0-0-0--0-0-----0-----0--0-0-0--0-0-3-5-0-3-2-0-

Stave 6:

E|-----------------------------------------------
B|-----------------------------------------------
G|-----------------------------------------------
D|-----------------------------------------------
A|-2----------3-5---3-2----2----------------------
E|-0-0-0--0-0-----0-----0--0-0-0--0-0-3-5-0-3-2-0-

Stave 7:

E|---------7----------_-
B|-------5------------
G|--------------------
D|--------------------
A|-2-------------------
E|-0-0-0---------------

Stave 8:

E|---------7-7-7-7-3-3-3-3-6-6-6-6-2-2-2-2----
B|---------5-5-5-5-1-1-1-1-4-4-4-4-0-0-0-0-
G|-----------------------------------------
D|-----------------------------------------
A|--2--------------------------------------
E|--0-0-0----------------------------------

Stave 9:

E|--7-7-7-7-3-3-3-3-6-6-6-6-2-2-2-2-
B|--5-5-5-5-1-1-1-1-4-4-4-4-0-0-0-0-
G|----------------------------------
D|----------------------------------
A|----------------------------------
E|----------------------------------

Stave 10:

E|--7-7-7-7-3-3-3-3-6-6-6-6-2-2-2-2-
B|--5-5-5-5-1-1-1-1-4-4-4-4-0-0-0-0-
G|----------------------------------
D|----------------------------------
A|----------------------------------
E|----------------------------------

Stave 11:

E|--7-7-7-7-3-3-3-3-6-6-6--/15b15-
B|--5-5-5-5-1-1-1-1-4-4-4---15-15-
G|--------------------------------
D|--------------------------------
A|--------------------------------
E|--------------------------------

Stave 12:

E|-----------------------------------------------------
B|-----------------------------------------------------
G|-----------------------------------------------------
D|-----------------------------------------------------
A|-2---------------------------2----------------------3-
E|-0-0-0--0-0-0-0-0-0-0-0-1-1--0-0-0--0-0-0-0-0-0-0-0-1-

Stave 13:

E|-----------------------------------------------------
B|-----------------------------------------------------
G|-----------------------------------------------------
D|-----------------------------------------------------
A|-2---------------------------2----------------------3-
E|-0-0-0--0-0-0-0-0-0-0-0-1-1--0-0-0--0-0-0-0-0-0-0-0-1-

Stave 14:

E|---------
B|---------
G|---------
D|---------
A|---------
E|--1/13\1-

Stave 15:

E|-----------------------------------------------------
B|-----------------------------------------------------
G|-----------------------------------------------------
D|-----------------------------------------------------
A|-2---------------------------2----------------------3-
E|-0-0-0--0-0-0-0-0-0-0-0-1-1--0-0-0--0-0-0-0-0-0-0-0-1-

Stave 16:

E|-----------------------------------------------------
B|-----------------------------------------------------
G|-----------------------------------------------------
D|-----------------------------------------------------
A|-2---------------------------2----------------------3-
E|-0-0-0--0-0-0-0-0-0-0-0-1-1--0-0-0--0-0-0-0-0-0-0-0-1-

Stave 17:

E|---------------------------------
B|---------------------------------
G|---------------------------------
D|---------------------------------
A|-2-----------2-1--2-----------5-6-
E|-0-0-0-0-1b0-3-2--0-0-0-0-1b0-3-4-

Stave 18:

E|----------------------------------
B|----------------------------------
G|----------------------------------
D|----------------------------------
A|-2-----------2-1--2-----------5-6-
E|-0-0-0-0-1b0-3-2--0-0-0-0-1b0-3-4-

Stave 19:

E|----------------------------------
B|----------------------------------
G|----------------------------------
D|----------------------------------
A|-2-----------2-1--2-----------5-6-
E|-0-0-0-0-1b0-3-2--0-0-0-0-1b0-3-4-

Stave 20:

E|----------------------------------
B|----------------------------------
G|----------------------------------
D|----------------------------------
A|-2-----------2-1--2-----------5-6-
E|-0-0-0-0-1b0-3-2--0-0-0-0-1b0-3-4-

Stave 21:

E|-----------------------------------------------------
B|-----------------------------------------------------
G|-----------------------------------------------------
D|-----------------------------------------------------
A|-2---------------------------2----------------------3-
E|-0-0-0--0-0-0-0-0-0-0-0-1-1--0-0-0--0-0-0-0-0-0-0-0-1-

Stave 22:

E|-----------------------------------------------------
B|-----------------------------------------------------
G|-----------------------------------------------------
D|-----------------------------------------------------
A|-2---------------------------2----------------------3-
E|-0-0-0--0-0-0-0-0-0-0-0-1-1--0-0-0--0-0-0-0-0-0-0-0-1-

Stave 23:

E|------------------------------------------
B|------------------------------------------
G|-9-9-9-9-9-9-9-9-10-10-9-9-9-9-9-9-9-9-12-
D|------------------------------------------
A|-7-7-7-7-7-7-7-7-8--8--7-7-7-7-7-7-7-7-10-
E|------------------------------------------

Stave 24:

E|-----------------------------------------
B|-----------------------------------------
G|-9-9-9-9-9-9-9-9-10-10-9-9-9-9-9-9-9-9-12-
D|-----------------------------------------
A|-7-7-7-7-7-7-7-7-8--8--7-7-7-7-7-7-7-7-10-
E|-----------------------------------------

Stave 25:

E|------------------------------------------------------------------
B|------------------------------------------------------------------
G|------------------------------------------------------------------
D|-----9-----9-----9-----9-----10-10-----9-----9-----9-----9-----12-
A|-----7-----7-----7-----7-----8--8------7-----7-----7-----7-----10-
E|-0-0-0-0-0-0-0-0-0-0-0-0-0-0-0--0--0-0-0-0-0-0-0-0-0-0-0-0-0-0-0--

Stave 26:

E|------------------------------------------------------------------
B|------------------------------------------------------------------
G|------------------------------------------------------------------
D|-----9-----9-----9-----9-----10-10-----9-----9-----9-----9-----10-
A|-----7-----7-----7-----7-----8--8------7-----7-----7-----7-----8--
E|-0-0-0-0-0-0-0-0-0-0-0-0-0-0-0--0--0-0-0-0-0-0-0-0-0-0-0-0-0-0-0--

Stave 27:

E|------------------------------------------------------------------
B|------------------------------------------------------------------
G|------------------------------------------------------------------
D|-----9-----9-----9-----9-----10-10-----9-----9-----9-----9-----12-
A|-----7-----7-----7-----7-----8--8------7-----7-----7-----7-----10-
E|-0-0-0-0-0-0-0-0-0-0-0-0-0-0-0--0--0-0-0-0-0-0-0-0-0-0-0-0-0-0-0--

Stave 28:

E|-----------------------------------------------------------------
B|-----------------------------------------------------------------
G|-----------------------------------------------------------------
D|-----9-----9-----9-----9-----10-10-----9-----9-----9-----9-------
A|-----7-----7-----7-----7-----8--8------7-----7-----7-----7-----3-
E|-0-0-0-0-0-0-0-0-0-0-0-0-0-0-0--0--0-0-0-0-0-0-0-0-0-0-0-0-0-0-1-

Stave 29:

E|-------------------19-15-12-19-15-12-18-15-12-18-15-12-17-15-12-17-15-12-
B|-------------------------------------------------------------------------
G|-------------------------------------------------------------------------
D|-------------------------------------------------------------------------
A|--------------2-3--------------------------------------------------------
E|--0-0-0-0-0-0-0-1--------------------------------------------------------

Stave 30:

E|-13-12-11-13-12-11-13-12-11-12-11-10---------
B|-------------------------------------12-11\6-
G|---------------------------------------------
D|---------------------------------------------
A|---------------------------------------------
E|---------------------------------------------

Stave 31:

E|-----------------------------------------------------
B|-----------------------------------------------------
G|--------------------------------7-9-10-9-7-----------
D|-------------------------7-9-10------------10v-9-----
A|-------------2-3--7-9-10-------------------------6b6-
E|-0-0-0-0-0-0-0-1-------------------------------------

Stave 32:

E|--------------------------------------------------------
B|--------------------------------------------------------
G|---------------------------------------------------10-9-
D|--------------------------------9-8--------8-10-11------
A|-------------2-3---------7-9-10-----7-9-10--------------
E|-0-0-0-0-0-0-0-1--7-9-10--------------------------------

Stave 33:

E|----------------------------------------------------------------------
B|------------------3b5--5-3-1-------------------------------1----------
G|-----------------------------4-2-0---2-1---------------1-2---2-1------
D|-----------------------------------3-----2---2-1---1-2-----------3v-2-
A|-------------2-3---------------------------3-----2--------------------
E|-0-0-0-0-0-0-0-1------------------------------------------------------

Stave 34:

E|----------------------------------------------------
B|--------------------------------2---------------3b3-
G|----------------------------2-5---5-2-------2-5-----
D|------------------------1-4-----------4-1-4---------
A|------------2-3-2-----2-----------------------------
E|--0-0-0-0-0-0-1-0-0-0-------------------------------

Stave 35:

E|-6-6-6-2-5-5-5-2-3-3-3-2-5-3-2----------------------
B|-------------------------------4-3-1----------------
G|-------------------------------------3-2------------
D|-----------------------------------------4-3--------
A|----------------------------------------------------
E|---------------------------------------------0/6v-6-

Stave 36:

E|-------------------------------------------
B|-------------------------------------------
G|-----6-----8------9------11-12-11-10-------
D|-4-7---6-9---7-10---9-12-------------9v-12-
A|-------------------------------------------
E|-------------------------------------------

Stave 37:

E|----------------------------------------------------
B|----------------------------------------------------
G|-----4-----3-----2-----1----------------------------
D|-0-6---0-5---0-4---0-3------------------------------
A|-------------------------1/4v-4---------------------
E|--------------------------------0-9-8-7-6-5-4-3-2-1-

Stave 38:

E|------------------------------------------------1-------
B|--------------------------------------------2-3---3-2-0-
G|--------------------------------2-------2-3-------------
D|--------------------------1-3-4---4-3-4-----------------
A|--------------2-3-2-----2-------------------------------
E|--0-0-0-0-0-0-0-1-0-0-0---------------------------------

Stave 39:

E|----------0-3-2-0-5-3-0-7-5-0-8-7-0-10-8-0-11b11-
B|-------------------------------------------------
G|-------------------------------------------------
D|-------------------------------------------------
A|-------------------------------------------------
E|-------------------------------------------------

Stave 40:

E|-10-9-7----------8-7-4-------4-3-1-------------1-------
B|--------10-9-7---------7-6-3-------4-3-1-4-3-1---4-3---
G|---------------9-------------------------------------0-
D|-------------------------------------------------------
A|-------------------------------------------------------
E|-------------------------------------------------------

Stave 41:

E|--------------------------------------------------------
B|--------------------------------------------------------
G|-3-2-0--3-2-0--3-2-0--3-2-0--3-2-0--3-2-0--3-2-0--3-2-0-
D|--------------------------------------------------------
A|--------------------------------------------------------
E|--------------------------------------------------------

Stave 42:

E|-------------------------------------
B|-------------------------------------
G|-------------------------------------
D|-------------------------------------
A|-------------2-3-----------------2-3-
E|-0-0-0-0-0-0-0-1-----0-0-0-0-0-0-0-1-

Stave 43:

E|-----------------------------------------------------
B|-----------------------------------------------------
G|-----------------------------------------------------
D|-----------------------------------------------------
A|-------------2-3-----------------2-3---3---3---3---3-
E|-0-0-0-0-0-0-0-1-----0-0-0-0-0-0-0-1---1---1---1---1-

http://www.guitartabcreator.com
Guitar Tab Creator is intended to store guitar tab created through the tool. It currently does not support in-line text editing. Any text you place in here will be lost. If you need to comment on your tab, please use the "Tab Notes" section located below.