Sound will begin in 5 seconds

Bone Fragments

Chords
01234567891011121314151617181920212223
E
B
G
D
A
E
B
0 1 2 3 4 5 6 7 8 9 10 11 12 13 14 15 16 17 18 19 20 21 22 23
Song Science #1: How Pros Use 6 Chords to Write Hit Songs
(/) Slide Up  (\) Slide Down  (h) Hammer On  (p) Pull Off  (b) Bend (r) Release (v) Vibrato

Stave 1:

E|-------------------------------------------------
B|-------------------------------------------------
G|-------------------------------------------------
D|--0-2--0-2--0-2--0-2-----------------------------
A|-------------------------------------------------
E|--0-0--0-0--0-0--0-0-0-0-0-0-0-0-0-0-0-0-0-0-0-0-

Stave 2:

E|----------------------------------------------------
B|----------------------------------------------------
G|----------------------------------------------------
D|----2---10-9-7---7-------------2---10-9-7---7-----7-
A|-2-------8--7-5-9-5-9-8-3---2-------8--7-5-9-5-9-8-5-
E|-0-0---0--------7---7-6-1---0-0---0--------7---7-6---

Stave 3:

E|----------------------------------------------------
B|----------------------------------------------------
G|----------------------------------------------------
D|----2---10-9-7---7-------------2---10-9-7---7-----7-
A|-2-------8--7-5-9-5-9-8-3---2-------8--7-5-9-5-9-8-5-
E|-0-0---0--------7---7-6-1---0-0---0--------7---7-6---

Stave 4:

E|-----------------------------------------------------
B|-----------------------------------------------------
G|-----------------------------------------------------
D|-----2---10-9-7---7-------------2---10-9-7---7-----7-
A|-2-------8--7-5-9-5-9-8-3---2-------8--7-5-9-5-9-8-5-
E|-0-0---0--------7---7-6-1---0-0---0--------7---7-6---

Stave 5:

E|-----------------------------------------------------
B|-----------------------------------------------------
G|-----------------------------------------------------
D|-----2---10-9-7---7-------------2---10-9-7---7-----7-
A|-2-------8--7-5-9-5-9-8-3---2-------8--7-5-9-5-9-8-5-
E|-0-0---0--------7---7-6-1---0-0---0--------7---7-6---

Stave 6:

E|---------------------------------------------
B|---------------------------------------------
G|---------------------------------------------
D|--10\9---------9\7---------7\5-----4/5-4-2---
A|--8--7---------7-5---------5-3-----2-3\2-0-5-
E|-------0-0-0-0-----0-0-0-0-----0-0---------3-

Stave 7:

E|---------------------------------------------
B|---------------------------------------------
G|---------------------------------------------
D|--10\9---------9\7---------7-5-----4/5-4-2---
A|--8--7---------7-5---------5\3-----2-3\2-0-3-
E|-------0-0-0-0-----0-0-0-0-----0-0---------1-

Stave 8:

E|---------------------------------------------
B|---------------------------------------------
G|---------------------------------------------
D|--10\9---------9\7---------7\5-----4-5\4-2---
A|--8--7---------7-5---------5-3-----2/3-2-0-5-
E|-------0-0-0-0-----0-0-0-0-----0-0---------3-

Stave 9:

E|---------------------------------------------
B|---------------------------------------------
G|---------------------------------------------
D|--10\9---------9\7---------7\5-----4/5-4-2---
A|--8--7---------7-5---------5-3-----2-3\2-0-3-
E|-------0-0-0-0-----0-0-0-0-----0-0---------1-

Stave 10:

E|------------------------------
B|------------------------------
G|-------------------------7-8--
D|------2---10-9-------2---9-10-
A|--2-------8--7---2------------
E|--0-0---0--------0-0---0------

Stave 11:

E|-------------------------------------
B|-------------------------------------
G|-------------------------------------
D|------2---10-9-------2---5\4---------
A|--2-------8--7---2-------3-2-0-5\4---
E|--0-0---0--------0-0---0-------3-2-0-

Stave 12:

E|-----------------------------
B|-----------------------------
G|------------------------7-8--
D|----2---10-9--------2---9-10-
A|-2-------8--7----2------------
E|-0-0---0---------0-0---0------

Stave 13:

E|--------------------------------------
B|--------------------------------------
G|--------------------------------------
D|------2---10-9--------2---5\4---------
A|--2-------8--7----2-------3-2-0-5\4---
E|--0-0---0---------0-0---0-------3-2-0-

Stave 14:

E|---------------------------------------------------------
B|---------------------------------------------------------
G|---------------------------------------------------------
D|---------------------------------------------------------
A|-------------------------------------------------3-3-3-3-
E|-0-0-0-0-0-0-0-0-1-1-1-1-1-1-1-1-0-0-0-0-0-0-0-0-1-1-1-1-

Stave 15:

E|-------------------------------------------------
B|-------------------------------------------------
G|------------------9b9-9-7------------------------
D|--4-------------7---------10-9-7---------7-----7-
A|----6-5-------9------------------9-7---9-5-9-8-5-
E|--------6-5/8------------------------8-7---7-6---

Stave 16:

E|---------------------------------------------
B|---------------------------------------------
G|---------------------------------------------
D|--10\9---------9\7---------7\5-----4/5-4-2---
A|--8--7---------7-5---------5-3-----2-3\2-0-5-
E|-------0-0-0-0-----0-0-0-0-----0-0---------3-

Stave 17:

E|---------------------------------------------
B|---------------------------------------------
G|---------------------------------------------
D|--10\9---------9\7---------7\5-----4/5-4-2---
A|--8--7---------7-5---------5-3-----2-3\2-0-3-
E|-------0-0-0-0-----0-0-0-0-----0-0---------1-

Stave 18:

E|---------------------------------------------
B|---------------------------------------------
G|---------------------------------------------
D|--10\9---------9\7---------7-5-----4/5-4-2---
A|--8--7---------7-5---------5\3-----2-3\2-0-5-
E|-------0-0-0-0-----0-0-0-0-----0-0---------3-

Stave 19:

E|-_-----------------------------------------
B|-_-----------------------------------------
G|-_-----------------------------------------
D|-10\9---------9\7---------7-5-----4/5-4-2---
A|-8--7---------7-5---------5\3-----2-3\2-0-3-
E|-_---0-0-0-0-----0-0-0-0-----0-0---------1-

Stave 20:

E|----------------------------------------------------
B|----------------------------------------------------
G|----------------------------------------------------
D|----2---10-9-7---7-------------2---10-9-7---7-----7-
A|-2-------8--7-5-9-5-9-8-3---2-------8--7-5-9-5-9-8-5-
E|-0-0---0--------7---7-6-1---0-0---0--------7---7-6---

Stave 21:

E|------------------------------------------------------
B|------------------------------------------------------
G|------------------------------------------------------
D|------2---10-9-7---7-------------2---10-9-7---7-----7-
A|--2-------8--7-5-9-5-9-8-3---2-------8--7-5-9-5-9-8-5-
E|--0-0---0--------7---7-6-1---0-0---0--------7---7-6---

Stave 22:

E|----------------------------------------------------
B|----------------------------------------------------
G|----------------------------------------------------
D|---------9---------9---------9---------9-----10-9-7-
A|---------7---------7---------7---------7-----8--7-5-
E|-0-0-0-0---0-0-0-0---0-0-0-0---0-0-0-0---0-0--------

Stave 23:

E|----------------------------------------------------
B|----------------------------------------------------
G|----------------------------------------------------
D|---------9---------9---------9---------9----------7-
A|---------7---------7---------7---------7-----10-9-5-
E|-0-0-0-0---0-0-0-0---0-0-0-0---0-0-0-0---0-0-8--7---

Stave 24:

E|----------------------------------------------------
B|----------------------------------------------------
G|----------------------------------------------------
D|---------9---------9---------9---------9-----10-9-7-
A|---------7---------7---------7---------7-----8--7-5-
E|-0-0-0-0---0-0-0-0---0-0-0-0---0-0-0-0---0-0--------

Stave 25:

E|----------------------------------------------------
B|----------------------------------------------------
G|----------------------------------------------------
D|---------9---------9---------9---------9-----10-9---
A|---------7---------7---------7---------7-----8--7-7-
E|-0-0-0-0---0-0-0-0---0-0-0-0---0-0-0-0---0-0------5-

Stave 26:

E|----------------------------------------------------
B|----------------------------------------------------
G|----------------------------------------------------
D|---------9---------9---------9---------9-----10-9-7-
A|---------7---------7---------7---------7-----8--7-5-
E|-0-0-0-0---0-0-0-0---0-0-0-0---0-0-0-0---0-0--------

Stave 27:

E|-----------------------------------------------------
B|-----------------------------------------------------
G|-----------------------------------------------------
D|----------9---------9---------9---------9-------7-10-
A|----------7---------7---------7---------7-----7-5-8--
E|--0-0-0-0---0-0-0-0---0-0-0-0---0-0-0-0---0-0-5------

Stave 28:

E|-----------------------------------------------------
B|-----------------------------------------------------
G|-----------------------------------------------------
D|----------9---------9---------9---------9-----10-9-7-
A|----------7---------7---------7---------7-----8--7-5-
E|--0-0-0-0---0-0-0-0---0-0-0-0---0-0-0-0---0-0--------

Stave 29:

E|---------------------------------------------------------------------
B|---------------------------------------------------------------------
G|---------------------------------------------------------------------
D|---------7-----------------------------------2-------------1---------
A|---5-7-8---8-7-5---5/8---4/7---3/10v-10----2---4-3-------1---3-2-----
E|-0---------------6-----5-----4-----------3---------3-2-2---------2-1-

Stave 30:

E|---------------------------
B|---------------------------
G|----------------------7-8--
D|----2---10-9------2---9-10-
A|-2-------8--7--2------------
E|-0-0---0-------0-0---0------

Stave 31:

E|------------------------------------
B|------------------------------------
G|------------------------------------
D|------2---10-9------2---5-4---------
A|--2-------8--7--2-------3-2-0-5-4---
E|--0-0---0-------0-0---0-------3-2-0-

Stave 32:

E|---------------------------
B|---------------------------
G|----------------------7-8--
D|----2---10-9------2---9-10-
A|-2-------8--7--2------------
E|-0-0---0-------0-0---0------

Stave 33:

E|----------------------------------
B|----------------------------------
G|----------------------------------
D|----2---10-9------2---5-4---------
A|-2-------8--7--2-------3-2-0-5-4---
E|-0-0---0-------0-0---0-------3-2-0-

Stave 34:

E|---------------------------------------------------------
B|---------------------------------------------------------
G|---------------------------------------------------------
D|---------------------------------------------------------
A|-------------------------------------------------3-3-3-3-
E|-0-0-0-0-0-0-0-0-1-1-1-1-1-1-1-1-0-0-0-0-0-0-0-0-1-1-1-1-

http://www.guitartabcreator.com
Guitar Tab Creator is intended to store guitar tab created through the tool. It currently does not support in-line text editing. Any text you place in here will be lost. If you need to comment on your tab, please use the "Tab Notes" section located below.