Your Reality

Chords

01234567891011121314151617181920212223
E
B
G
D
A
E
B
0 1 2 3 4 5 6 7 8 9 10 11 12 13 14 15 16 17 18 19 20 21 22 23
(/) Slide Up  (\) Slide Down  (h) Hammer On  (p) Pull Off  (b) Bend (r) Release (v) Vibrato

Opening Tune

E|--8--------------------3-----------3-----0-----------3--
C|--0-----------------5--2-----------2-----0--------5--0--
G|--0--0--2--5--0--2--5--0--0--2--0--0--0--0--0--2--5--0--
C|--0-----------------0-----------------------------0-----
G|--------------------------------------------------------
C|--------------------------------------------------------

Every day, I imagine a future where I could be with you

E|-----0------------------------------------------------
C|-----7--7--7v--7--5--4--4--5--7--4--2--0--2--4--0-----
G|-----0---------------------------------------------0--
C|--0---------------------------------------------------
G|------------------------------------------------------
C|------------------------------------------------------

(tururu tururu tu! tututu tu tu tu tu)

E|--3--5--3--3--5--3--8--8--5--7--5--7--8--3--
C|--------------------------------------------
G|--------------------------------------------
C|--------------------------------------------
G|--------------------------------------------
C|--------------------------------------------

In my hand, is a pen that will write a po~em, of me and you

E|----------------------------------------------------
C|--7--7/9--7--4--5--7--5--4--2--0--------------------
G|----------------------------------------------8--4--
C|----------------------------------6--4--7--5--------
G|----------------------------------------------------
C|----------------------------------------------------

(tururu tururu tu! tututu tu tu tu tu)

E|--3--5--3--3--5--3--8--8--5--7--5--8--3--
C|-----------------------------------------
G|-----------------------------------------
C|-----------------------------------------
G|-----------------------------------------
C|-----------------------------------------

The ink flows down into a dark pu~ddle

E|--------------------------------
C|--7--7--7--5--4--0--2--2--4--7--
G|--------------------------------
C|--------------------------------
G|--------------------------------
C|--------------------------------

Just move your hand, write the way into his heart

E|-----------------------------------
C|--9--7--4--2-----------------------
G|--------------0--2--5--2--6--7--5--
C|-----------------------------------
G|-----------------------------------
C|-----------------------------------

But in this world of infinite choices

E|-----------------------------------
C|--7--7--7--5--4--4--0--0--2--4--7--
G|-----------------------------------
C|-----------------------------------
G|-----------------------------------
C|-----------------------------------

What will it take just to find that special day

E|-----------------------------------
C|--9--7--4--2-----------------------
G|--------------0--2--5--2--5--7--5--
C|-----------------------------------
G|-----------------------------------
C|-----------------------------------

What will it take just to find...

E|-----------------------
C|--9--7--4--2-----------
G|--------------0--2--5--
C|-----------------------
G|-----------------------
C|-----------------------

...that special day

E|-------------
C|-------------
G|--2--5/7--5--
C|-------------
G|-------------
C|-------------

							http://www.guitartabcreator.com
Instruments
{"strings":[[[8,".",".",".",".",".",".",3,".",".",".",3,".",0,".",".",".",3],[0,".",".",".",".",".",5,2,".",".",".",2,".",0,".",".",5,0],[0,0,2,5,0,2,5,0,0,2,0,0,0,0,0,2,5,0],[0,".",".",".",".",".",0,".",".",".",".",".",".",".",".",".",0,"."],[".",".",".",".",".",".",".",".",".",".",".",".",".",".",".",".",".","."],[".",".",".",".",".",".",".",".",".",".",".",".",".",".",".",".",".","."]],[[".",0,".",".",".",".",".",".",".",".",".",".",".",".",".",".",".","."],[".",7,7,7,"v",7,5,4,4,5,7,4,2,0,2,4,0,"."],[".",0,".",".",".",".",".",".",".",".",".",".",".",".",".",".",".",0],[0,".",".",".",".",".",".",".",".",".",".",".",".",".",".",".",".","."],[".",".",".",".",".",".",".",".",".",".",".",".",".",".",".",".",".","."],[".",".",".",".",".",".",".",".",".",".",".",".",".",".",".",".",".","."]],[[3,5,3,3,5,3,8,8,5,7,5,7,8,3],[".",".",".",".",".",".",".",".",".",".",".",".",".","."],[".",".",".",".",".",".",".",".",".",".",".",".",".","."],[".",".",".",".",".",".",".",".",".",".",".",".",".","."],[".",".",".",".",".",".",".",".",".",".",".",".",".","."],[".",".",".",".",".",".",".",".",".",".",".",".",".","."]],[[".",".",".",".",".",".",".",".",".",".",".",".",".",".",".",".",".","."],[7,7,"/",9,7,4,5,7,5,4,2,0,".",".",".",".",".","."],[".",".",".",".",".",".",".",".",".",".",".",".",".",".",".",".",8,4],[".",".",".",".",".",".",".",".",".",".",".",".",6,4,7,5,".","."],[".",".",".",".",".",".",".",".",".",".",".",".",".",".",".",".",".","."],[".",".",".",".",".",".",".",".",".",".",".",".",".",".",".",".",".","."]],[[3,5,3,3,5,3,8,8,5,7,5,8,3],[".",".",".",".",".",".",".",".",".",".",".",".","."],[".",".",".",".",".",".",".",".",".",".",".",".","."],[".",".",".",".",".",".",".",".",".",".",".",".","."],[".",".",".",".",".",".",".",".",".",".",".",".","."],[".",".",".",".",".",".",".",".",".",".",".",".","."]],[[".",".",".",".",".",".",".",".",".","."],[7,7,7,5,4,0,2,2,4,7],[".",".",".",".",".",".",".",".",".","."],[".",".",".",".",".",".",".",".",".","."],[".",".",".",".",".",".",".",".",".","."],[".",".",".",".",".",".",".",".",".","."]],[[".",".",".",".",".",".",".",".",".",".","."],[9,7,4,2,".",".",".",".",".",".","."],[".",".",".",".",0,2,5,2,6,7,5],[".",".",".",".",".",".",".",".",".",".","."],[".",".",".",".",".",".",".",".",".",".","."],[".",".",".",".",".",".",".",".",".",".","."]],[[".",".",".",".",".",".",".",".",".",".","."],[7,7,7,5,4,4,0,0,2,4,7],[".",".",".",".",".",".",".",".",".",".","."],[".",".",".",".",".",".",".",".",".",".","."],[".",".",".",".",".",".",".",".",".",".","."],[".",".",".",".",".",".",".",".",".",".","."]],[[".",".",".",".",".",".",".",".",".",".","."],[9,7,4,2,".",".",".",".",".",".","."],[".",".",".",".",0,2,5,2,5,7,5],[".",".",".",".",".",".",".",".",".",".","."],[".",".",".",".",".",".",".",".",".",".","."],[".",".",".",".",".",".",".",".",".",".","."]],[[".",".",".",".",".",".","."],[9,7,4,2,".",".","."],[".",".",".",".",0,2,5],[".",".",".",".",".",".","."],[".",".",".",".",".",".","."],[".",".",".",".",".",".","."]],[[".",".",".",".","."],[".",".",".",".","."],[2,5,"/",7,5],[".",".",".",".","."],[".",".",".",".","."],[".",".",".",".","."]]],"numberofstrings":6,"notes":["E","C","G","C","G","C"],"capo":0,"stringnotes":["E3","C3","G2","C2","G1","C1"],"comments":["Opening Tune","Every day, I imagine a future where I could be with you","(tururu tururu tu! tututu tu tu tu tu)","In my hand, is a pen that will write a po~em, of me and you","(tururu tururu tu! tututu tu tu tu tu)","The ink flows down into a dark pu~ddle","Just move your hand, write the way into his heart","But in this world of infinite choices","What will it take just to find that special day","What will it take just to find...","...that special day"],"timing":[[null,"W","W","W","W","W","W","W","W","W","W","W","W","W","W","W","W","W","W"],["W","W","W",null,"W","W","W","W","W","W","W","W","W","W","W","W","W",null,"W","W"],["W","W","W","W","W","W","W","W","W","W","W","W","W","W"],["W","W",null,"W","W","W","W","W","W","W","W","W","W","W","W","W","W","W"],["W","W","W","W","W","W","W","W","W","W","W","W","W","W"],["W","W","W","W","W","W","W","W","W","W"],["W","W","W","W","W","W","W","W","W","W","W","W"],["W","W","W","W","W","W","W","W","W","W","W"],["W","W","W","W","W","W","W","W","W","W","W"],["W","W","W","W","W","W","W"],["W","W",null,"W","W"]],"timingvisible":false,"tabcounter":5,"stave":10,"totalstaves":11,"instrument":"6guitar","selectedtuning":"Open C","version":"13"}

Member for

3 years 9 months
Submitted by GriffinMM on Fri, 2020-11-20 14:06