leader of the band verses

01234567891011121314151617181920212223
E
B
G
D
A
E
B
0 1 2 3 4 5 6 7 8 9 10 11 12 13 14 15 16 17 18 19 20 21 22 23
(/) Slide Up  (\) Slide Down  (h) Hammer On  (p) Pull Off  (b) Bend (r) Release (v) Vibrato

Stave 1:

E|--------------3--------
B|--------0-----------1--
G|-----------------0-----
D|--------0--------------
A|-----------------------
E|--3--------3-----------

null

E|--3-----------------------|--
B|--0--------------0--------|--
G|-----------0-----------0--|--
D|--------0-----------0-----|--
A|--------------------------|--
E|--3-----------3-----------|--

Stave 3:

E|--2-----------------------|--1-----------------------|--------------------------|--------------------------|--
B|--3--------------------3--|-----------------0--------|--1--------------1--------|--0--------------0--------|--
G|--4--------4-----4--------|-----------1-----------0--|-----------2-----------2--|-----------0-----------0--|--
D|--------4-----------4-----|--------2-----------1-----|--------2-----------2-----|--------2-----------2-----|--
A|--2-----------------------|--3-----------------------|--0-----------------------|--------------------------|--
E|--------------2-----------|--------------3-----------|--------------0-----------|--0-----------0-----------|--

Stave 4:

E|--------------------------|--
B|--1--------------1--------|--
G|-----------2-----------2--|--
D|--------2-----------2-----|--
A|--0-----------------------|--
E|--------------0-----------|--

							http://www.guitartabcreator.com
Chords

Instruments
{"strings":[[[".","_",".",".",3,".","."],[".","_",0,".",".",".",1],[".","_",".",".",".",0,"."],[".","_",0,".",".",".","."],[".","_",".",".",".",".","."],[3,"_",".",3,".",".","."]],[[3,"_",".",".",".",".",".",".","|"],[0,"_",".",".",".",0,".",".","|"],[".","_",".",0,".",".",".",0,"|"],[".","_",0,".",".",".",0,".","|"],[".","_",".",".",".",".",".",".","|"],[3,"_",".",".",3,".",".",".","|"]],[[2,"_",".",".",".",".",".",".","|",1,"_",".",".",".",".",".",".","|",".","_",".",".",".",".",".",".","|",".","_",".",".",".",".",".",".","|"],[3,"_",".",".",".",".",".",3,"|",".","_",".",".",".",0,".",".","|",1,"_",".",".",".",1,".",".","|",0,"_",".",".",".",0,".",".","|"],[4,"_",".",4,".",4,".",".","|",".","_",".",1,".",".",".",0,"|",".","_",".",2,".",".",".",2,"|",".","_",".",0,".",".",".",0,"|"],[".","_",4,".",".",".",4,".","|",".","_",2,".",".",".",1,".","|",".","_",2,".",".",".",2,".","|",".","_",2,".",".",".",2,".","|"],[2,"_",".",".",".",".",".",".","|",3,"_",".",".",".",".",".",".","|",0,"_",".",".",".",".",".",".","|",".","_",".",".",".",".",".",".","|"],[".","_",".",".",2,".",".",".","|",".","_",".",".",3,".",".",".","|",".","_",".",".",0,".",".",".","|",0,"_",".",".",0,".",".",".","|"]],[[".","_",".",".",".",".",".",".","|"],[1,"_",".",".",".",1,".",".","|"],[".","_",".",2,".",".",".",2,"|"],[".","_",2,".",".",".",2,".","|"],[0,"_",".",".",".",".",".",".","|"],[".","_",".",".",0,".",".",".","|"]]],"numberofstrings":6,"notes":["E","B","G","D","A","E","B"],"capo":0,"stringnotes":["E4","B3","G3","D3","A2","E2"],"comments":["Stave 1:",null,"Stave 3:","Stave 4:"],"timing":[["W",null,"W","W","W","W","W","W"],null,["W",null,"W","W","W","W","W","W",null,"W",null,"W","W","W","W","W","W",null,"W","W","W","W","W","W","W","W",null,"W","W","W","W","W","W","W","W"],["W",null,"W","W","W","W","W","W"]],"timingvisible":false,"tabcounter":9,"stave":3,"totalstaves":4,"instrument":"6guitar","selectedtuning":"6_standard","version":"13"}

Member for

1 month 3 weeks
Submitted by GretchenMeeks on Wed, 2021-03-03 18:32