Rubber Bandana

01234567891011121314151617181920212223
E
B
G
D
A
E
B
0 1 2 3 4 5 6 7 8 9 10 11 12 13 14 15 16 17 18 19 20 21 22 23
(/) Slide Up  (\) Slide Down  (h) Hammer On  (p) Pull Off  (b) Bend (r) Release (v) Vibrato

Stave 1:

E|--------------------------------|-----------------------------------------------------|--
B|--------------------------------|-----------------------------------------------------|--
G|--------------------------------|-----------------------------------------------------|--
D|--------------------------------|-----------------------------------------------------|--
A|--------------------------5--6--|-----------------------------6--7--5--6--------------|--
E|--------------------5--8--------|-----------------------5--8--------------5--8--------|--
A|--0--0--0--0--0--0--------------|--0--0--0--0--0--0--0--------------------------5--6--|--

Stave 2:

E|--------------------------------|-----------------------------------------------------|--
B|--------------------------------|-----------------------------------------------------|--
G|--------------------------------|-----------------------------------------------------|--
D|--------------------------------|-----------------------------------------------------|--
A|--------------------------5--6--|-----------------------------5--6--------------------|--
E|--------------------5--8--------|-----------------------5--8--------5--8--------------|--
A|--0--0--0--0--0--0--------------|--0--0--0--0--0--0--0--------------------6--7--5--6--|--

Stave 3:

E|--------------------------------|-------------------|--
B|--------------------------------|-------------------|--
G|--------------------------------|-------------------|--
D|--------------------------------|-------------------|--
A|--------------------------------|--6h7p6h7r6h7p6h7--|--
E|--------------------------5--8--|-------------------|--
A|--0--0--0--0--0--0--5--6--------|-------------------|--

Stave 4:

E|--------------------------------|-----------------------------------------|--
B|--------------------------------|-----------------------------------------|--
G|--------------------------------|-----------------------------------------|--
D|--------------------------------|-----------------------------------------|--
A|--------------------------------|-----------------5--6--------------------|--
E|--------------------------5--8--|-----------------------5--8--------------|--
A|--0--0--0--0--0--0--5--6--------|--0--0--0--0--0--------------6--7--5--6--|--

Stave 5:

E|--------------------------------|--------------------------
B|--------------------------------|--------------------------
G|--------------------------------|--------------------------
D|--------------------------------|--------------------------
A|--3h4p3-------------------------|--------------------------
E|---------5--3h5p3---------------|--------------------------
A|-------------------6--3h5p3--0--|--0--0--0--0--0--0--0--0--

Stave 6:

E|--
B|--
G|--
D|--
A|--
E|--
A|--

							http://www.guitartabcreator.com
Chords

genre
Instruments
{"strings":[[[".",".",".",".",".",".",".",".",".",".","|",".",".",".",".",".",".",".",".",".",".",".",".",".",".",".",".",".","|"],[".",".",".",".",".",".",".",".",".",".","|",".",".",".",".",".",".",".",".",".",".",".",".",".",".",".",".",".","|"],[".",".",".",".",".",".",".",".",".",".","|",".",".",".",".",".",".",".",".",".",".",".",".",".",".",".",".",".","|"],[".",".",".",".",".",".",".",".",".",".","|",".",".",".",".",".",".",".",".",".",".",".",".",".",".",".",".",".","|"],[".",".",".",".",".",".",".",".",5,6,"|",".",".",".",".",".",".",".",".",".",6,7,5,6,".",".",".",".","|"],[".",".",".",".",".",".",5,8,".",".","|",".",".",".",".",".",".",".",5,8,".",".",".",".",5,8,".",".","|"],[0,0,0,0,0,0,".",".",".",".","|",0,0,0,0,0,0,0,".",".",".",".",".",".",".",".",5,6,"|"]],[[".",".",".",".",".",".",".",".",".",".","|",".",".",".",".",".",".",".",".",".",".",".",".",".",".",".",".",".","|"],[".",".",".",".",".",".",".",".",".",".","|",".",".",".",".",".",".",".",".",".",".",".",".",".",".",".",".",".","|"],[".",".",".",".",".",".",".",".",".",".","|",".",".",".",".",".",".",".",".",".",".",".",".",".",".",".",".",".","|"],[".",".",".",".",".",".",".",".",".",".","|",".",".",".",".",".",".",".",".",".",".",".",".",".",".",".",".",".","|"],[".",".",".",".",".",".",".",".",5,6,"|",".",".",".",".",".",".",".",".",".",5,6,".",".",".",".",".",".","|"],[".",".",".",".",".",".",5,8,".",".","|",".",".",".",".",".",".",".",5,8,".",".",5,8,".",".",".",".","|"],[0,0,0,0,0,0,".",".",".",".","|",0,0,0,0,0,0,0,".",".",".",".",".",".",6,7,5,6,"|"]],[[".",".",".",".",".",".",".",".",".",".","|",".",".",".",".",".",".",".",".",".",".",".",".",".",".",".","|"],[".",".",".",".",".",".",".",".",".",".","|",".",".",".",".",".",".",".",".",".",".",".",".",".",".",".","|"],[".",".",".",".",".",".",".",".",".",".","|",".",".",".",".",".",".",".",".",".",".",".",".",".",".",".","|"],[".",".",".",".",".",".",".",".",".",".","|",".",".",".",".",".",".",".",".",".",".",".",".",".",".",".","|"],[".",".",".",".",".",".",".",".",".",".","|",6,"h",7,"p",6,"h",7,"r",6,"h",7,"p",6,"h",7,"|"],[".",".",".",".",".",".",".",".",5,8,"|",".",".",".",".",".",".",".",".",".",".",".",".",".",".",".","|"],[0,0,0,0,0,0,5,6,".",".","|",".",".",".",".",".",".",".",".",".",".",".",".",".",".",".","|"]],[[".",".",".",".",".",".",".",".",".",".","|",".",".",".",".",".",".",".",".",".",".",".",".",".","|"],[".",".",".",".",".",".",".",".",".",".","|",".",".",".",".",".",".",".",".",".",".",".",".",".","|"],[".",".",".",".",".",".",".",".",".",".","|",".",".",".",".",".",".",".",".",".",".",".",".",".","|"],[".",".",".",".",".",".",".",".",".",".","|",".",".",".",".",".",".",".",".",".",".",".",".",".","|"],[".",".",".",".",".",".",".",".",".",".","|",".",".",".",".",".",5,6,".",".",".",".",".",".","|"],[".",".",".",".",".",".",".",".",5,8,"|",".",".",".",".",".",".",".",5,8,".",".",".",".","|"],[0,0,0,0,0,0,5,6,".",".","|",0,0,0,0,0,".",".",".",".",6,7,5,6,"|"]],[[".",".",".",".",".",".",".",".",".",".",".",".",".",".",".",".",".",".","|",".",".",".",".",".",".",".","."],[".",".",".",".",".",".",".",".",".",".",".",".",".",".",".",".",".",".","|",".",".",".",".",".",".",".","."],[".",".",".",".",".",".",".",".",".",".",".",".",".",".",".",".",".",".","|",".",".",".",".",".",".",".","."],[".",".",".",".",".",".",".",".",".",".",".",".",".",".",".",".",".",".","|",".",".",".",".",".",".",".","."],[3,"h",4,"p",3,".",".",".",".",".",".",".",".",".",".",".",".",".","|",".",".",".",".",".",".",".","."],[".",".",".",".",".",5,3,"h",5,"p",3,".",".",".",".",".",".",".","|",".",".",".",".",".",".",".","."],[".",".",".",".",".",".",".",".",".",".",".",6,3,"h",5,"p",3,0,"|",0,0,0,0,0,0,0,0]],[[],[],[],[],[],[],[]]],"numberofstrings":7,"notes":["E","B","G","D","A","E","A"],"capo":0,"stringnotes":["E3","B2","G2","D2","A1","E1","A0"],"comments":["Stave 1:","Stave 2:","Stave 3:","Stave 4:","Stave 5:","Stave 6:"],"timing":[["W","W","W","W","W","W","W","W","W","W",null,"W","W","W","W","W","W","W","W","W","W","W","W","W","W","W","W","W"],["W","W","W","W","W","W","W","W","W","W",null,"W","W","W","W","W","W","W","W","W","W","W","W","W","W","W","W","W"],["W","W","W","W","W","W","W","W","W","W",null,"W",null,"W",null,"W",null,"W",null,"W",null,"W",null,"W",null,"W"],["W","W","W","W","W","W","W","W","W","W",null,"W","W","W","W","W","W","W","W","W","W","W","W","W"],["W",null,"W",null,"W","W","W",null,"W",null,"W","W","W",null,"W",null,"W","W",null,"W","W","W","W","W","W","W","W"],[]],"timingvisible":false,"tabcounter":0,"stave":5,"totalstaves":6,"instrument":"7guitar","selectedtuning":"7_drop_a","version":"13"}

Member for

10 months 2 weeks
Submitted by gregtallica on Mon, 2020-12-07 10:11