Press Club - Suburbia

Chords

01234567891011121314151617181920212223
E
B
G
D
A
E
B
0 1 2 3 4 5 6 7 8 9 10 11 12 13 14 15 16 17 18 19 20 21 22 23
(/) Slide Up  (\) Slide Down  (h) Hammer On  (p) Pull Off  (b) Bend (r) Release (v) Vibrato

Intro x2

E|-----------------------------------------------------------------
B|--9---------5-----------9---------12-----------5-----------------
G|--9---------6-----------9---------9------------6-----------------
D|--11--------7-----------11--------11-----------7-----------------
A|-----------------------------------------------------------------
E|-----------------------------------------------------------------

Baby It's Hard..

E|--0-----------------------0-----------------------0--------------
B|--0-----------------------0-----------------------0--------------
G|--1-----------------------4-----------------------2--------------
D|--2-----------------------4-----------------------2--------------
A|--2-----------------------2-----------------------0--------------
E|--0--------------------------------------------------------------

Verse x2

E|--4--4----------------0--0--|--
B|--4--4--5p4-----------0--0--|--
G|--6--6-------6--------2--2--|--
D|--6--6----------6-----2--2--|--
A|--4--4----------------0--0--|--
E|----------------------------|--

Baby it's hard when you're left in the dark

E|--0--0--0--0--0--0-----|--0--0--0--0--0--0-----|--0--0--0--0--0--0-----|--0--------------------
B|--0--0--0--0--0--0-----|--0--0--0--0--0--0-----|--0--0--0--0--0--0-----|--0--------------------
G|--1--1--1--1--1--1-----|--1--1--1--1--1--1-----|--4--4--4--4--4--4-----|--2--------------------
D|--2--2--2--2--2--2-----|--2--2--2--2--2--2-----|--4--4--4--4--4--4-----|--2--------------------
A|--2--2--2--2--2--2-----|--2--2--2--2--2--2-----|--2--2--2--2--2--2-----|--0--------------------
E|--0--0--0--0--0--0-----|--0--0--0--0--0--0-----|-----------------------|-----------------------

Palm Muted - I keep running back 

E|--------------------------------------x--x-----|--
B|--------------------------------------x--x-----|--
G|--4--4--4--4--4--4--4--4--4--4--4--4--x--x-----|--
D|--4--4--4--4--4--4--4--4--4--4--4--4--x--x-----|--
A|--2--2--2--2--2--2--2--2--2--2--2--2--x--x-----|--
E|--------------------------------------x--x-----|--

Chorus

E|-------------------------------------------------------------------------------------------------------------
B|--9------------------------9---------------------------------------------------------------------------------
G|--9------------------------9---------------------9--9--9--9--9--8--8--8--9--9--9--9--9--9--8--8--8--6--6--6--
D|--11-----------------------11--------------------9--9--9--9--9--9--9--9--9--9--9--9--9--9--9--9--9--9--9--9--
A|--0------------------------0---------------------------------------------------------------------------------
E|-------------------------------------------------------------------------------------------------------------

Stave 7:

E|--
B|--
G|--
D|--
A|--
E|--

							http://www.guitartabcreator.com
Instruments
{"strings":[[[".","_","_",".","_","_","_",".","_","_",".","_","_","_",".","_","_","_","_","."],[9,"_","_",5,"_","_","_",9,"_","_",12,"_","_","_",5,"_","_","_","_","."],[9,"_","_",6,"_","_","_",9,"_","_",9,"_","_","_",6,"_","_","_","_","."],[11,"_","_",7,"_","_","_",11,"_","_",11,"_","_","_",7,"_","_","_","_","."],[".","_","_",".","_","_","_",".","_","_",".","_","_","_",".","_","_","_","_","."],[".","_","_",".","_","_","_",".","_","_",".","_","_","_",".","_","_","_","_","."]],[[0,"_","_","_","_","_","_","_",0,"_","_","_","_","_","_","_",0,"_","_","_","_"],[0,"_","_","_","_","_","_","_",0,"_","_","_","_","_","_","_",0,"_","_","_","_"],[1,"_","_","_","_","_","_","_",4,"_","_","_","_","_","_","_",2,"_","_","_","_"],[2,"_","_","_","_","_","_","_",4,"_","_","_","_","_","_","_",2,"_","_","_","_"],[2,"_","_","_","_","_","_","_",2,"_","_","_","_","_","_","_",0,"_","_","_","_"],[0,"_","_","_","_","_","_","_",".","_","_","_","_","_","_","_",".","_","_","_","_"]],[[4,4,".",".",".",".",".","_",0,0,"|"],[4,4,5,"p",4,".",".","_",0,0,"|"],[6,6,".",".",".",6,".","_",2,2,"|"],[6,6,".",".",".",".",6,"_",2,2,"|"],[4,4,".",".",".",".",".","_",0,0,"|"],[".",".",".",".",".",".",".","_",".",".","|"]],[[0,0,0,0,0,0,"_","|",0,0,0,0,0,0,"_","|",0,0,0,0,0,0,"_","|",0,"_","_","_","_","_","_"],[0,0,0,0,0,0,"_","|",0,0,0,0,0,0,"_","|",0,0,0,0,0,0,"_","|",0,"_","_","_","_","_","_"],[1,1,1,1,1,1,"_","|",1,1,1,1,1,1,"_","|",4,4,4,4,4,4,"_","|",2,"_","_","_","_","_","_"],[2,2,2,2,2,2,"_","|",2,2,2,2,2,2,"_","|",4,4,4,4,4,4,"_","|",2,"_","_","_","_","_","_"],[2,2,2,2,2,2,"_","|",2,2,2,2,2,2,"_","|",2,2,2,2,2,2,"_","|",0,"_","_","_","_","_","_"],[0,0,0,0,0,0,"_","|",0,0,0,0,0,0,"_","|",".",".",".",".",".",".","_","|",".","_","_","_","_","_","_"]],[[".",".",".",".",".",".",".",".",".",".",".",".","x4","x4","_","|"],[".",".",".",".",".",".",".",".",".",".",".",".","x4","x4","_","|"],[4,4,4,4,4,4,4,4,4,4,4,4,"x4","x4","_","|"],[4,4,4,4,4,4,4,4,4,4,4,4,"x4","x4","_","|"],[2,2,2,2,2,2,2,2,2,2,2,2,"x4","x4","_","|"],[".",".",".",".",".",".",".",".",".",".",".",".","x4","x4","_","|"]],[[".","_","_","_","_","_","_","_",".","_","_","_","_","_","_",".",".",".",".",".",".",".",".",".",".",".",".",".",".",".",".",".",".",".","."],[9,"_","_","_","_","_","_","_",9,"_","_","_","_","_","_",".",".",".",".",".",".",".",".",".",".",".",".",".",".",".",".",".",".",".","."],[9,"_","_","_","_","_","_","_",9,"_","_","_","_","_","_",9,9,9,9,9,8,8,8,9,9,9,9,9,9,8,8,8,6,6,6],[11,"_","_","_","_","_","_","_",11,"_","_","_","_","_","_",9,9,9,9,9,9,9,9,9,9,9,9,9,9,9,9,9,9,9,9],[0,"_","_","_","_","_","_","_",0,"_","_","_","_","_","_",".",".",".",".",".",".",".",".",".",".",".",".",".",".",".",".",".",".",".","."],[".","_","_","_","_","_","_","_",".","_","_","_","_","_","_",".",".",".",".",".",".",".",".",".",".",".",".",".",".",".",".",".",".",".","."]],[[],[],[],[],[],[]]],"numberofstrings":6,"notes":["E","B","G","D","A","E","B"],"capo":0,"stringnotes":["E4","B3","G3","D3","A2","E2"],"comments":["Intro x2","Baby It's Hard..","Verse x2","Baby it's hard when you're left in the dark","Palm Muted - I keep running back ","Chorus","Stave 7:"],"timing":[[null,null,null,null,null,null,null,null,null,null,"W","W",null,null,"W","W","W"],["W","W",null,null,null,null,null,"W","W",null,null,null,null,null,"W",null,"W"],["W","W","W",null,"W","W","W",null,"W","W",null,"W","W"],["W","W","W","W","W","W",null,null,"W","W","W","W","W","W",null,null,"W","W","W","W","W","W",null,null,"W"],["E","E","W","W","W","W","W","W","W","W","W","W","W","W"],["W",null,null,null,null,null,null,null,"W",null,null,null,null,null,null,"W","W","W","W","W","W","W","W","W","W","W","W","W","W","W","W","W","W","W","W"],[]],"timingvisible":false,"tabcounter":0,"stave":6,"totalstaves":7,"instrument":"6guitar","selectedtuning":"6_standard","version":"13"}

Member for

1 month 1 week
Submitted by Greg Rietwyk on Mon, 2020-09-21 20:02