Sound will begin in 5 seconds

space oddity solo

01234567891011121314151617181920212223
E
B
G
D
A
E
B
0 1 2 3 4 5 6 7 8 9 10 11 12 13 14 15 16 17 18 19 20 21 22 23
Song Science #1: How Pros Use 6 Chords to Write Hit Songs
(/) Slide Up  (\) Slide Down  (h) Hammer On  (p) Pull Off  (b) Bend (r) Release (v) Vibrato

Stave 1:

E|--------------------------------------------------------5--------------
B|-----------------------------------------------------5-----8--5--------
G|-----5--7--5-----------5-----------------------5--6--------------6-----
D|--7-----------7--5--7--------5--7--5--------7-----------------------7--
A|--------------------------7-----------7--------------------------------
E|-----------------------------------------5-----------------------------

Stave 2:

E|------------------------------------------------------------------------------------
B|----------------------------------------10--12--10----------------------------------
G|------8--10--8--9-------------8--9------11--12--11--------------10--11--------------
D|--10---------------10--8--10--------12--------------12--10--12----------2-----------
A|------------------------------------------------------------------------------------
E|---------------------------------------------------------------------------3--3--0--

http://www.guitartabcreator.com
Guitar Tab Creator is intended to store guitar tab created through the tool. It currently does not support in-line text editing. Any text you place in here will be lost. If you need to comment on your tab, please use the "Tab Notes" section located below.