Sound will begin in 5 seconds

The Real McFarlands

Chords
01234567891011121314151617181920212223
E
B
G
D
A
E
B
0 1 2 3 4 5 6 7 8 9 10 11 12 13 14 15 16 17 18 19 20 21 22 23
Song Science #1: How Pros Use 6 Chords to Write Hit Songs
(/) Slide Up  (\) Slide Down  (h) Hammer On  (p) Pull Off  (b) Bend (r) Release (v) Vibrato

Stave 1:

E|-------------------------------------------|--
B|----------7--7h8p7-------------------------|--
G|--7h9---------------9--7--9--4-----2p0--2--|--
D|-------------------------------------------|--
A|-------------------------------------------|--
E|-------------------------------------------|--

Stave 2:

E|-----------------------7--8--7h8p7---------7------------------------------|--
B|-------------7--8--10---------------10--8--------10--8--8h10--8--7--8-----|--
G|--7--7h9---------------------------------------------------------------9--|--
D|--------------------------------------------------------------------------|--
A|--------------------------------------------------------------------------|--
E|--------------------------------------------------------------------------|--

Stave 3:

E|------------------------------|--
B|-----5------------------------|--
G|--7-----7--5--4h5p4--2--0-----|--
D|---------------------------2--|--
A|------------------------------|--
E|------------------------------|--

Stave 4:

E|------------------------10------8--7h8p7-------------7-----------|--
B|--5-------8--10--10/12------12------------10--8--10-----8--0--5--|--
G|--7h9------------------------------------------------------------|--
D|-----------------------------------------------------------------|--
A|-----------------------------------------------------------------|--
E|-----------------------------------------------------------------|--

Stave 5:

E|---------------------------------------------------------------|--
B|------------------------------------------------------0-----1--|--
G|--7h9-----9p7--4--5--2--0--4--2-----------0--1--2--3-----------|--
D|---------------------------------2-----2-----------------------|--
A|---------------------------------------------------------------|--
E|---------------------------------------------------------------|--

Stave 6:

E|--------------2--3--3/5--5/7--7--3--0--5\3----------------|--
B|--5--3--5--5--------------------------------8--7--7h8--5--|--
G|----------------------------------------------------------|--
D|----------------------------------------------------------|--
A|----------------------------------------------------------|--
E|----------------------------------------------------------|--

Stave 7:

E|--------|--
B|--------|--
G|--9h11--|--
D|--------|--
A|--------|--
E|--------|--

Stave 8:

E|--------------------------|--
B|-----8-----8-----7-----5--|--
G|-----9-----9-----7-----5--|--
D|--------------------------|--
A|--7-----7-----5-----3-----|--
E|--------------------------|--

http://www.guitartabcreator.com
Guitar Tab Creator is intended to store guitar tab created through the tool. It currently does not support in-line text editing. Any text you place in here will be lost. If you need to comment on your tab, please use the "Tab Notes" section located below.