Sound will begin in 5 seconds

Violet Rhythm

Chords
01234567891011121314151617181920212223
E
B
G
D
A
E
B
0 1 2 3 4 5 6 7 8 9 10 11 12 13 14 15 16 17 18 19 20 21 22 23
(/) Slide Up  (\) Slide Down  (h) Hammer On  (p) Pull Off  (b) Bend (r) Release (v) Vibrato

Stave 1:

E|--0--------------0--------0--------
B|--0--------------0--------0--------
G|--8--------------1--------4--------
D|--6--------------2--------6--------
A|--9--------------x--------0--------
E|--0--------------2--------5--------

Stave 2:

E|--0--------4--------0-----
B|--7--------5--------2-----
G|--8--------4--------1-----
D|--6--------6--------2-----
A|--7--------4--------0-----
E|--0-----------------------

Stave 3:

E|-------------------------------------
B|------15-----------------------------
G|--14------11--13--14--14--13---------
D|------------------------------16-----
A|-------------------------------------
E|-------------------------------------

Stave 4:

E|------------------------------
B|------------------------------
G|--11--14----------13----------
D|----------14--16--------------
A|----------------------16--14--
E|------------------------------

http://www.guitartabcreator.com
Guitar Tab Creator is intended to store guitar tab created through the tool. It currently does not support in-line text editing. Any text you place in here will be lost. If you need to comment on your tab, please use the "Tab Notes" section located below.