Sound will begin in 5 seconds

Metal Hymn to Zeus

Chords
01234567891011121314151617181920212223
E
B
G
D
A
E
B
0 1 2 3 4 5 6 7 8 9 10 11 12 13 14 15 16 17 18 19 20 21 22 23
Song Science #1: How Pros Use 6 Chords to Write Hit Songs
(/) Slide Up  (\) Slide Down  (h) Hammer On  (p) Pull Off  (b) Bend (r) Release (v) Vibrato

Stave 1:

G|-----------------------------19\--------------------------------------------------19-----------------------------------19--
D|---------------------------------------------------------------------------------------------------------------------------
A|---------------------------------------------------------------------------------------------------------------------------
E|--0--0--0--0--0--0--0--0--0--------0--0--2--0--3--0--0--0--2--0--3--0--0--2--0--3b0---------0--0--0--0--0--0--0--0--0------

Stave 2:

G|-----------------------------------------------------------------------------------------
D|-----------------------------------------------------------------------------------------
A|--------------------------3--2-----------------------------------------------3--2--------
E|--0--0--2--0--3--0--0--0--------3--0--0--2--0--3--0--0--0--2--0--3--0--0--0--------3--5--

Stave 3:

G|-----------------------------------------------------------
D|-----------------------------------------------------------
A|-----------------------------------------------------------
E|--0--0--0--0--0--0--0--0--0--0--0--0--0--0--0--0--0--0--0--

Stave 4:

G|-----------------------------------------------------------------------------------------------------------------------17--16------14--
D|--7--------12--14--14--16--14--17--12--14--14--16--14--17--12--14--14--------------12--14--14--16--14--17--12--14--14----------17------
A|-----------------------------------------------------------------------15--14----------------------------------------------------------
E|-------------------------------------------------------------------------------15------------------------------------------------------

Stave 5:

G|-----14h16h17--
D|---------------
A|---------------
E|--0------------

http://www.guitartabcreator.com
Guitar Tab Creator is intended to store guitar tab created through the tool. It currently does not support in-line text editing. Any text you place in here will be lost. If you need to comment on your tab, please use the "Tab Notes" section located below.