Sound will begin in 5 seconds

Fram by Rodrigo y Gabriela

01234567891011121314151617181920212223
E
B
G
D
A
E
B
0 1 2 3 4 5 6 7 8 9 10 11 12 13 14 15 16 17 18 19 20 21 22 23
Song Science #1: How Pros Use 6 Chords to Write Hit Songs
(/) Slide Up  (\) Slide Down  (h) Hammer On  (p) Pull Off  (b) Bend (r) Release (v) Vibrato

Stave 1:

E|-------------------------|---------------------------|--
B|-------------------------|---------------------------|--
G|-------------------------|---------------------------|--
D|-------------------------|--7--7h5-----5-------------|--
A|-----7--7h5-----5--7-----|----------7-------------5--|--
E|--0----------7--------0--|----------------0--5h7-----|--

Stave 2:

E|-------------------------|------------------------|--
B|-------------------------|------------------------|--
G|-------------------------|------------------------|--
D|-------------------------|---------------5--------|--
A|-----7--7h5-----5--7-----|-------5--5h7-----7--5--|--
E|--0----------7--------0--|--5h7-------------------|--

Stave 3:

E|-------------------------|-------------------------|--
B|-------------------------|-------------------------|--
G|-------------------------|----------------------7--|--
D|-------------------------|--7--7h5-----5--7--9-----|--
A|-----7--7h5-----5--7-----|----------7--------------|--
E|--0----------7--------0--|-------------------------|--

Stave 4:

E|-----------------------------|---------------------------|--
B|-----------------------------|---------------------------|--
G|-----9--9h7-----7--9-----12--|-----11-----9--------------|--
D|-------------9---------------|------------------9-----5--|--
A|-----------------------------|---------------------------|--
E|--0-------------------0------|--0------0-----0-----0-----|--

Stave 5:

E|------------------------------|--
B|------------------------------|--
G|-----9--9h7-------------------|--
D|-------------9-----7--7h5-----|--
A|---------------------------7--|--
E|--0-------------0-------------|--

Stave 6:

E|------------------------------------------|--
B|------------------------------------------|--
G|------------------------------------------|--
D|------------------------------------------|--
A|------------5h7--5h7----------------------|--
E|--5h7--5h7------------5h7--5h7--3h5--3h5--|--

Stave 7:

E|-----|----|--
B|-----|----|--
G|-----|----|--
D|--2--|----|--
A|--2--|----|--
E|--0--|----|--

Stave 8:

E|--------------------------|--------------------------|--
B|--------------------------|--------------------------|--
G|--------------------------|--------------------------|--
D|--------6--------6--------|--------7--------7--------|--
A|-----7--------7--------7--|-----7--------7--------7--|--
E|--0--------0--------0-----|--0--------0--------0-----|--

Stave 9:

E|--------------------------|--------------------------|--
B|--------------------------|--------------------------|--
G|--------0--------0--------|--------------------------|--
D|-----2--------2--------2--|--5--5--5--5--5--5--2--2--|--
A|--3--------3--------3-----|--3--3--3--3--2--2--0--0--|--
E|--------------------------|--------------------------|--

Stave 10:

E|--------------------------|--------------------------|--
B|--------------------------|--------------------------|--
G|--------------------------|--------------------------|--
D|--------6--------6--------|--------7--------7--------|--
A|-----7--------7--------7--|-----7--------7--------7--|--
E|--0--------0--------0-----|--0--------0--------0-----|--

Stave 11:

E|--------------------------|--------------------------|--
B|--------------------------|--------------------------|--
G|--------0--------0--------|--------------------------|--
D|-----2--------2--------2--|--5--5--5--5--5--5--2--2--|--
A|--3--------3--------3-----|--3--3--3--3--2--2--0--0--|--
E|--------------------------|--------------------------|--

Stave 12:

E|----------------------------|------------------------------|--
B|----------------------------|------------------------------|--
G|----------------------------|------------------------------|--
D|--------6--------6-------6--|--------7--------7------------|--
A|-----7--------7-----5h7-----|-----7--------7-----5h7--5h7--|--
E|--0--------0----------------|--0--------0------------------|--

Stave 13:

E|----------------------------|--------------------------|--
B|----------------------------|--------------------------|--
G|----------0--------0--------|--------------------------|--
D|-------2--------2--------2--|--5--5--5--5--5--5--2--2--|--
A|----3--------3--------3-----|--3--3--3--3--2--2--0--0--|--
E|----------------------------|--------------------------|--

Stave 14:

E|------------------------------|------------------------------|--
B|------------------------------|------------------------------|--
G|------------------------------|------------------------------|--
D|----------6--------6-------6--|--------7--------7------------|--
A|-------7--------7-----5h7-----|-----7--------7-----5h7--5h7--|--
E|----0--------0----------------|--0--------0------------------|--

Stave 15:

E|----------------------------|--------------------------|--
B|----------------------------|--------------------------|--
G|----------0--------0--------|--------------------------|--
D|-------2--------2--------2--|--5--5--5--5--5--5--2--2--|--
A|----3--------3--------3-----|--3--3--3--3--2--2--0--0--|--
E|----------------------------|--------------------------|--

Stave 16:

E|----------------------------|--------------------------|--
B|----------------------------|--------------------------|--
G|----------0--------0--------|--------0--------0--------|--
D|-------7--------7--------7--|-----7--------7-----------|--
A|----4--------4--------4-----|--4--------4--------0--2--|--
E|----------------------------|--------------------------|--

Stave 17:

E|--------------------------|--------------------------|--
B|--------------------------|--------------------------|--
G|--------0--------0--------|--------0--------0--------|--
D|-----7--------7--------7--|-----7--------7--------7--|--
A|--3--------3--------3-----|--3--------3--------3-----|--
E|--------------------------|--------------------------|--

Stave 18:

E|--------------------------|--------------------------|--
B|--------------------------|--------------------------|--
G|--------0--------0--------|--------0--------0--------|--
D|-----7--------7--------7--|-----7--------7-----------|--
A|--4--------4--------4-----|--4--------4--------0--2--|--
E|--------------------------|--------------------------|--

Stave 19:

E|--------------------------|--------------------------|--
B|--------------------------|--------------------------|--
G|--------0--------0--------|--------------------------|--
D|-----7--------7--------7--|--5--5--5--5--5--5--5--5--|--
A|--3--------3--------3-----|--3--3--3--3--2--2--2--2--|--
E|--------------------------|--------------------------|--

Stave 20:

E|-------------------------|---------------------------|--
B|-------------------------|---------------------------|--
G|-------------------------|---------------------------|--
D|-------------------------|--7--7h5-----5-------------|--
A|-----7--7h5-----5--7-----|----------7-------------5--|--
E|--0----------7--------0--|----------------0--5h7-----|--

Stave 21:

E|-------------------------|------------------------|--
B|-------------------------|------------------------|--
G|-------------------------|------------------------|--
D|-------------------------|---------------5--------|--
A|-----7--7h5-----5--7-----|-------5--5h7-----7--5--|--
E|--0----------7--------0--|--5h7-------------------|--

Stave 22:

E|-------------------------|-------------------------|------------------------------|-----|--
B|-------------------------|-------------------------|------------------------------|-----|--
G|-------------------------|----------------------7--|-----9--9h7-------------------|-----|--
D|-------------------------|--7--7h5-----5--7--9-----|-------------9-----7--7h5-----|-----|--
A|-----7--7h5-----5--7-----|----------7--------------|---------------------------7--|--6--|--
E|--0----------7--------0--|-------------------------|--0-------------0-------------|-----|--

http://www.guitartabcreator.com
Guitar Tab Creator is intended to store guitar tab created through the tool. It currently does not support in-line text editing. Any text you place in here will be lost. If you need to comment on your tab, please use the "Tab Notes" section located below.