Slow and Depressing

Chords

01234567891011121314151617181920212223
E
B
G
D
A
E
B
0 1 2 3 4 5 6 7 8 9 10 11 12 13 14 15 16 17 18 19 20 21 22 23
(/) Slide Up  (\) Slide Down  (h) Hammer On  (p) Pull Off  (b) Bend (r) Release (v) Vibrato

Stave 1:

E|--5-----------5--------5--------5--------5--------
B|-----6-----6-----6--------6--------6--------6-----
G|--------7-----------7--------7--------7--------7--
D|--------------------------------------------------
A|--------------------------------------------------
E|--------------------------------------------------

Stave 2:

E|--3-----------3--------3--------3--------3--------
B|-----5-----5-----5--------5--------5--------5-----
G|--------5-----------5--------5--------5--------5--
D|--------------------------------------------------
A|--------------------------------------------------
E|--------------------------------------------------

Stave 3:

E|--1-----------1--------1--------1--------1--------
B|-----3-----3-----3--------3--------3--------3-----
G|--------3-----------3--------3--------3--------3--
D|--------------------------------------------------
A|--------------------------------------------------
E|--------------------------------------------------

Stave 4:

E|--0-----------0--------0--------0--------0--1--0--
B|-----3-----3-----3--------3--------3--------------
G|--------3-----------3--------3--------3-----------
D|--------------------------------------------------
A|--------------------------------------------------
E|--------------------------------------------------

							http://www.guitartabcreator.com
{"title":"","strings":[[[5,".",".",".",5,".",".",5,".",".",5,".",".",5,".","."],[".",6,".",6,".",6,".",".",6,".",".",6,".",".",6,"."],[".",".",7,".",".",".",7,".",".",7,".",".",7,".",".",7],[".",".",".",".",".",".",".",".",".",".",".",".",".",".",".","."],[".",".",".",".",".",".",".",".",".",".",".",".",".",".",".","."],[".",".",".",".",".",".",".",".",".",".",".",".",".",".",".","."]],[[3,".",".",".",3,".",".",3,".",".",3,".",".",3,".","."],[".",5,".",5,".",5,".",".",5,".",".",5,".",".",5,"."],[".",".",5,".",".",".",5,".",".",5,".",".",5,".",".",5],[".",".",".",".",".",".",".",".",".",".",".",".",".",".",".","."],[".",".",".",".",".",".",".",".",".",".",".",".",".",".",".","."],[".",".",".",".",".",".",".",".",".",".",".",".",".",".",".","."]],[[1,".",".",".",1,".",".",1,".",".",1,".",".",1,".","."],[".",3,".",3,".",3,".",".",3,".",".",3,".",".",3,"."],[".",".",3,".",".",".",3,".",".",3,".",".",3,".",".",3],[".",".",".",".",".",".",".",".",".",".",".",".",".",".",".","."],[".",".",".",".",".",".",".",".",".",".",".",".",".",".",".","."],[".",".",".",".",".",".",".",".",".",".",".",".",".",".",".","."]],[[0,".",".",".",0,".",".",0,".",".",0,".",".",0,1,0],[".",3,".",3,".",3,".",".",3,".",".",3,".",".",".","."],[".",".",3,".",".",".",3,".",".",3,".",".",3,".",".","."],[".",".",".",".",".",".",".",".",".",".",".",".",".",".",".","."],[".",".",".",".",".",".",".",".",".",".",".",".",".",".",".","."],[".",".",".",".",".",".",".",".",".",".",".",".",".",".",".","."]]],"numberofstrings":6,"notes":["E","B","G","D","A","E","B"],"capo":0,"stringnotes":["E4","B3","G3","D3","A2","E2"],"comments":["Stave 1:","Stave 2:","Stave 3:","Stave 4:"],"timing":[["W","W","W","W","W","W","W","W","W","W","W","W","W","W","W","W"],["W","W","W","W","W","W","W","W","W","W","W","W","W","W","W","W"],["W","W","W","W","W","W","W","W","W","W","W","W","W","W","W","W"],["W","W","W","W","W","W","W","W","W","W","W","W","W","W","W","W"]],"timingvisible":false,"tabcounter":16,"stave":3,"totalstaves":4,"instrument":"6guitar","selectedtuning":"6_standard","version":"13"}

Member for

1 year 4 months
Submitted by granthonii on Sat, 2020-02-15 22:33