Our Broken Constitution

Chords

01234567891011121314151617181920212223
E
B
G
D
A
E
B
0 1 2 3 4 5 6 7 8 9 10 11 12 13 14 15 16 17 18 19 20 21 22 23
(/) Slide Up  (\) Slide Down  (h) Hammer On  (p) Pull Off  (b) Bend (r) Release (v) Vibrato

Stave 1:

E|-----------------------------------------------------------------------------------------------
B|-----------------------------------------------------------------------------------------------
G|-----------5-----------------------5-----------------------5-----------------------5-----------
D|--------------8--7--5--7--------------8--7--5-----------------8--7--5--7--------------8--7--5--
A|--5--7--8-----------------5--7--8-----------------5--7--8-----------------5--7--8--------------
E|-----------------------------------------------------------------------------------------------

Stave 2:

E|-----------------------------------------------------------------------------------------------
B|-----------------------------------------------------------------------------------------------
G|-----------5-----------------------5-----------------------5-----------------------7--5--------
D|--------5-----8--7--5--7--------5-----8--7--5--------5--7-----8--7--5--7--------5--------8--7--
A|--7--8--------------------7--8--------------------8-----------------------7--8-----------------
E|-----------------------------------------------------------------------------------------------

Stave 3:

E|--------------------------------------------------
B|--------------------------------------------------
G|-----------7--5--------------------7--5-----------
D|--0--0--0--------8--7--8--0--0--0--------8--7-----
A|--0--0--0-----------------0--0--0-----------------
E|--0--0--0-----------------0--0--0-----------------

Stave 4:

E|--------------------------
B|--------------------------
G|-----------7--5-----------
D|--2--2--2--------8--7--8--
A|--2--2--2-----------------
E|--2--2--2-----------------

Stave 5:

E|--------------------------------------------------------------
B|--------------------------------------------------------------
G|-----------7--5--------------------7--5-----6-----------------
D|--3--3--3--------8--7--8--2--2--2--------8-----------------7--
A|--3--3--3-----------------2--2--2-----------------------------
E|--3--3--3-----------------2--2--2-----------------------------

Stave 6:

E|-----------
B|-----------
G|--7--5--6--
D|-----------
A|-----------
E|-----------

Stave 7:

E|----------------
B|----------------
G|--7--5----------
D|--------7-----7\
A|----------------
E|----------------

Stave 8:

E|-----------
B|-----------
G|--7--5--6--
D|-----------
A|--5--3--4--
E|-----------

Stave 9:

E|--------------------------------------------------
B|--------------------------------------------------
G|--------------------------------------------------
D|-----------------------5--7-----5-----------------
A|--5--7--8--5--7--8--5--------5-----5--8--5--7--4--
E|--------------------------------------------------

							http://www.guitartabcreator.com
Tab Notes

Stave 3: x2

Stave 4: x2

Stave 6: 7(x24), 5(x12), 6 (x12)

Stave 7: 7(x24), 5(x12)

Stave 8: 5-7(x16), 3-5(x8), 4-6 (x8) (Guitar 2 plays throughout Stave 9 riff)

Stave 9: Main Riff (Comes in after 2 playthroughs of Stave 8)

genre
Instruments
{"title":"","strings":[[[".",".",".",".",".",".",".",".",".",".",".",".",".",".",".","_",".",".",".",".",".",".",".",".",".",".",".",".",".",".","."],[".",".",".",".",".",".",".",".",".",".",".",".",".",".",".","_",".",".",".",".",".",".",".",".",".",".",".",".",".",".","."],[".",".",".",5,".",".",".",".",".",".",".",5,".",".",".","_",".",".",".",5,".",".",".",".",".",".",".",5,".",".","."],[".",".",".",".",8,7,5,7,".",".",".",".",8,7,5,"_",".",".",".",".",8,7,5,7,".",".",".",".",8,7,5],[5,7,8,".",".",".",".",".",5,7,8,".",".",".",".","_",5,7,8,".",".",".",".",".",5,7,8,".",".",".","."],[".",".",".",".",".",".",".",".",".",".",".",".",".",".",".","_",".",".",".",".",".",".",".",".",".",".",".",".",".",".","."]],[[".",".",".",".",".",".",".",".",".",".",".",".",".",".",".","_",".",".",".",".",".",".",".",".",".",".",".",".",".",".","."],[".",".",".",".",".",".",".",".",".",".",".",".",".",".",".","_",".",".",".",".",".",".",".",".",".",".",".",".",".",".","."],[".",".",".",5,".",".",".",".",".",".",".",5,".",".",".","_",".",".",".",5,".",".",".",".",".",".",".",7,5,".","."],[".",".",5,".",8,7,5,7,".",".",5,".",8,7,5,"_",".",5,7,".",8,7,5,7,".",".",5,".",".",8,7],[7,8,".",".",".",".",".",".",7,8,".",".",".",".",".","_",8,".",".",".",".",".",".",".",7,8,".",".",".",".","."],[".",".",".",".",".",".",".",".",".",".",".",".",".",".",".","_",".",".",".",".",".",".",".",".",".",".",".",".",".",".","."]],[[".",".",".",".",".",".",".",".",".",".",".",".",".",".",".","_"],[".",".",".",".",".",".",".",".",".",".",".",".",".",".",".","_"],[".",".",".",7,5,".",".",".",".",".",".",7,5,".",".","_"],[0,0,0,".",".",8,7,8,0,0,0,".",".",8,7,"_"],[0,0,0,".",".",".",".",".",0,0,0,".",".",".",".","_"],[0,0,0,".",".",".",".",".",0,0,0,".",".",".",".","_"]],[[".",".",".",".",".",".",".","."],[".",".",".",".",".",".",".","."],[".",".",".",7,5,".",".","."],[2,2,2,".",".",8,7,8],[2,2,2,".",".",".",".","."],[2,2,2,".",".",".",".","."]],[[".",".",".",".",".",".",".",".",".",".",".",".",".",".",".","_","_","_","_","."],[".",".",".",".",".",".",".",".",".",".",".",".",".",".",".","_","_","_","_","."],[".",".",".",7,5,".",".",".",".",".",".",7,5,".",6,"_","_","_","_","."],[3,3,3,".",".",8,7,8,2,2,2,".",".",8,".","_","_","_","_",7],[3,3,3,".",".",".",".",".",2,2,2,".",".",".",".","_","_","_","_","."],[3,3,3,".",".",".",".",".",2,2,2,".",".",".",".","_","_","_","_","."]],[[".",".","."],[".",".","."],[7,5,6],[".",".","."],[".",".","."],[".",".","."]],[[".",".",".","_",".","."],[".",".",".","_",".","."],[7,5,".","_",".","."],[".",".",7,"_",7,"\\"],[".",".",".","_",".","."],[".",".",".","_",".","."]],[[".",".","."],[".",".","."],[7,5,6],[".",".","."],[5,3,4],[".",".","."]],[[".",".",".",".",".",".",".",".",".",".",".",".",".",".",".","."],[".",".",".",".",".",".",".",".",".",".",".",".",".",".",".","."],[".",".",".",".",".",".",".",".",".",".",".",".",".",".",".","."],[".",".",".",".",".",".",".",5,7,".",5,".",".",".",".","."],[5,7,8,5,7,8,5,".",".",5,".",5,8,5,7,4],[".",".",".",".",".",".",".",".",".",".",".",".",".",".",".","."]]],"numberofstrings":6,"notes":["E","B","G","D","A","E"],"capo":0,"stringnotes":["E3","B2","G2","D2","A1","E1"],"comments":["Stave 1:","Stave 2:","Stave 3:","Stave 4:","Stave 5:","Stave 6:","Stave 7:","Stave 8:","Stave 9:"],"timing":[["W","W","W","W","W","W","W","W","W","W","W","W","W","W","W",null,"W","W","W","W","W","W","W","W","W","W","W","W","W","W","W"],["W","W","W","W","W","W","W","W","W","W","W","W","W","W","W",null,"W","W","W","W","W","W","W","W","W","W","W","W","W","W","W"],["W","W","W","W","W","W","W","W","W","W","W","W","W","W","W"],["W","W","W","W","W","W","W","W"],["W","W","W","W","W","W","W","W","W","W","W","W","W","W","W",null,null,null,null,"W"],["W","W","W"],["W","W","W",null,"W"],["W","W","W"],["W","W","W","W","W","W","W","W","W","W","W","W","W","W","W","W"]],"timingvisible":false,"tabcounter":16,"stave":8,"totalstaves":9,"instrument":"6guitar","selectedtuning":"6_standard","version":"13"}

Member for

1 year 4 months
Submitted by granthonii on Tue, 2019-05-28 21:52