Mary Did You Know

Chords

01234567891011121314151617181920212223
E
B
G
D
A
E
B
0 1 2 3 4 5 6 7 8 9 10 11 12 13 14 15 16 17 18 19 20 21 22 23
(/) Slide Up  (\) Slide Down  (h) Hammer On  (p) Pull Off  (b) Bend (r) Release (v) Vibrato

Stave 1:

E|-----------------------------------------------------------
B|-----------------------------------------------------------
G|------------7--9------9--7-----------------------7---------
D|--7--9--10--------10--------10--9------7--9--10-----10--9--
A|-----------------------------------10----------------------
E|-----------------------------------------------------------

Stave 2:

E|-----------------------------------------------------------
B|-----------------------------------------------------------
G|------------7--9------9--7-----------------------7--10--9--
D|--7--9--10--------10--------10--9------7--9--10------------
A|-----------------------------------10----------------------
E|-----------------------------------------------------------

Stave 3:

E|-------------7--8--7-----------------------------
B|-----10--10-----------10--8---------8--8--10-----
G|--9--------------------------10--9------------9--
D|-------------------------------------------------
A|-------------------------------------------------
E|-------------------------------------------------

Stave 4:

E|---------------------------------------------------------------
B|---------------------------------------------------------------
G|--9--10--9--7------7--9--10--9--10--9--10--9--9--7-------------
D|---------------10-----------------------------------10--9--10--
A|---------------------------------------------------------------
E|---------------------------------------------------------------

Stave 5:

E|-------------8--7--8--7--7--8--7-------------
B|--8--10--10-----------------------10--8--10--
G|---------------------------------------------
D|---------------------------------------------
A|---------------------------------------------
E|---------------------------------------------

Stave 6:

E|-------------8--7--8--7--7--8--10--12--13--12--
B|--8--10--10------------------------------------
G|-----------------------------------------------
D|-----------------------------------------------
A|-----------------------------------------------
E|-----------------------------------------------

							http://www.guitartabcreator.com
Instruments
{"strings":[[[".",".",".",".",".",".",".",".",".",".",".",".",".",".",".",".","."],[".",".",".",".",".",".",".",".",".",".",".",".",".",".",".",".","."],[".",".",".",7,9,".",9,7,".",".",".",".",".",".",7,".","."],[7,9,10,".",".",10,".",".",10,9,".",7,9,10,".",10,9],[".",".",".",".",".",".",".",".",".",".",10,".",".",".",".",".","."],[".",".",".",".",".",".",".",".",".",".",".",".",".",".",".",".","."]],[[".",".",".",".",".",".",".",".",".",".",".",".",".",".",".",".","."],[".",".",".",".",".",".",".",".",".",".",".",".",".",".",".",".","."],[".",".",".",7,9,".",9,7,".",".",".",".",".",".",7,10,9],[7,9,10,".",".",10,".",".",10,9,".",7,9,10,".",".","."],[".",".",".",".",".",".",".",".",".",".",10,".",".",".",".",".","."],[".",".",".",".",".",".",".",".",".",".",".",".",".",".",".",".","."]],[[".",".",".",7,8,7,".",".",".",".",".",".",".","."],[".",10,10,".",".",".",10,8,".",".",8,8,10,"."],[9,".",".",".",".",".",".",".",10,9,".",".",".",9],[".",".",".",".",".",".",".",".",".",".",".",".",".","."],[".",".",".",".",".",".",".",".",".",".",".",".",".","."],[".",".",".",".",".",".",".",".",".",".",".",".",".","."]],[[".",".",".",".",".",".",".",".",".",".",".",".",".",".",".",".",".","."],[".",".",".",".",".",".",".",".",".",".",".",".",".",".",".",".",".","."],[9,10,9,7,".",7,9,10,9,10,9,10,9,9,7,".",".","."],[".",".",".",".",10,".",".",".",".",".",".",".",".",".",".",10,9,10],[".",".",".",".",".",".",".",".",".",".",".",".",".",".",".",".",".","."],[".",".",".",".",".",".",".",".",".",".",".",".",".",".",".",".",".","."]],[[".",".",".",8,7,8,7,7,8,7,".",".","."],[8,10,10,".",".",".",".",".",".",".",10,8,10],[".",".",".",".",".",".",".",".",".",".",".",".","."],[".",".",".",".",".",".",".",".",".",".",".",".","."],[".",".",".",".",".",".",".",".",".",".",".",".","."],[".",".",".",".",".",".",".",".",".",".",".",".","."]],[[".",".",".",8,7,8,7,7,8,10,12,13,12],[8,10,10,".",".",".",".",".",".",".",".",".","."],[".",".",".",".",".",".",".",".",".",".",".",".","."],[".",".",".",".",".",".",".",".",".",".",".",".","."],[".",".",".",".",".",".",".",".",".",".",".",".","."],[".",".",".",".",".",".",".",".",".",".",".",".","."]]],"numberofstrings":6,"notes":["E","B","G","D","A","E","B"],"capo":0,"stringnotes":["E4","B3","G3","D3","A2","E2"],"comments":["Stave 1:","Stave 2:","Stave 3:","Stave 4:","Stave 5:","Stave 6:"],"timing":[["W","W","W","W","W","W","W","W","W","W","W","W","W","W","W","W","W"],["W","W","W","W","W","W","W","W","W","W","W","W","W","W","W","W","W"],["W","W","W","W","W","W","W","W","W","W","W","W","W","W"],["W","W","W","W","W","W","W","W","W","W","W","W","W","W","W","W","W","W"],["W","W","W","W","W","W","W","W","W","W","W","W","W"],["W","W","W","W","W","W","W","W","W","W","W","W","W"]],"timingvisible":false,"tabcounter":13,"stave":5,"totalstaves":6,"instrument":"6guitar","selectedtuning":"6_standard","version":"13"}

Member for

1 month 2 weeks
Submitted by Gorak104 on Tue, 2020-10-20 12:34