Stretcher

Chords

01234567891011121314151617181920212223
E
B
G
D
A
E
B
0 1 2 3 4 5 6 7 8 9 10 11 12 13 14 15 16 17 18 19 20 21 22 23
(/) Slide Up  (\) Slide Down  (h) Hammer On  (p) Pull Off  (b) Bend (r) Release (v) Vibrato

Capo Fret 2

Stave 1:

E|-----------------------------------------------------------------------------
B|-----------------------------------------------------------------------------
G|-----------------------------------------------------------------------------
D|--2--2--4--2--2--4--2--2--4--2--4--4--4--6--6--6--6--6--6--6--6--6--6--6--6--
A|--2--2--2--2--2--2--2--2--2--2--2--2--2--4--4--4--4--4--4--4--4--4--4--4--4--
E|--0--0--0--0--0--0--0--0--0--0--0--0--0--4--4--4--4--4--4--4--4--4--4--4--4--

Stave 2:

E|-----------------------------------------
B|-----------------------------------------
G|-----------------------------------------
D|--------4--2-----2--4--2-----2--4--2-----
A|-----2--------4-----------4-----------4--
E|--0--------------------------------------

Stave 3:

E|-----------------------------
B|-----------------------------
G|-----------------------------
D|--9--4--7--2-----9--4--7--3--
A|--7--2--5--0-----7--2--5--1--
E|--7--2--5--0-----7--2--5--1--

							http://www.guitartabcreator.com
Instruments
{"strings":[[[".",".",".",".",".",".",".",".",".",".",".",".",".",".",".",".",".",".",".",".",".",".",".",".","."],[".",".",".",".",".",".",".",".",".",".",".",".",".",".",".",".",".",".",".",".",".",".",".",".","."],[".",".",".",".",".",".",".",".",".",".",".",".",".",".",".",".",".",".",".",".",".",".",".",".","."],[2,2,4,2,2,4,2,2,4,2,4,4,4,6,6,6,6,6,6,6,6,6,6,6,6],[2,2,2,2,2,2,2,2,2,2,2,2,2,4,4,4,4,4,4,4,4,4,4,4,4],[0,0,0,0,0,0,0,0,0,0,0,0,0,4,4,4,4,4,4,4,4,4,4,4,4]],[[".",".",".",".",".",".",".",".",".",".",".",".","."],[".",".",".",".",".",".",".",".",".",".",".",".","."],[".",".",".",".",".",".",".",".",".",".",".",".","."],[".",".",4,2,".",2,4,2,".",2,4,2,"."],[".",2,".",".",4,".",".",".",4,".",".",".",4],[0,".",".",".",".",".",".",".",".",".",".",".","."]],[[".",".",".",".","_",".",".",".","."],[".",".",".",".","_",".",".",".","."],[".",".",".",".","_",".",".",".","."],[9,4,7,2,"_",9,4,7,3],[7,2,5,0,"_",7,2,5,1],[7,2,5,0,"_",7,2,5,1]]],"numberofstrings":6,"notes":["E","B","G","D","A","E","B"],"capo":"2","stringnotes":["E4","B3","G3","D3","A2","E2"],"comments":["Stave 1:","Stave 2:","Stave 3:"],"timing":[["W","W","W","W","W","W","W","W","W","W","W","W","W","W","W","W","W","W","W","W","W","W","W","W","W"],["W","W","W","W","W","W","W","W","W","W","W","W","W"],["W","W","W","W","W","W","W","W","W"]],"timingvisible":false,"tabcounter":9,"stave":2,"totalstaves":3,"instrument":"6guitar","selectedtuning":"6_standard","version":"13"}

Member for

3 months 1 week
Submitted by goosenotgeese on Thu, 2020-10-15 16:01