Steak and Rice

Chords

01234567891011121314151617181920212223
E
B
G
D
A
E
B
0 1 2 3 4 5 6 7 8 9 10 11 12 13 14 15 16 17 18 19 20 21 22 23
(/) Slide Up  (\) Slide Down  (h) Hammer On  (p) Pull Off  (b) Bend (r) Release (v) Vibrato

Stave 1:

E|------------------------------------------------------
B|------------------------------------------------------
G|--------------------------------4--2--------4/5\4--2--
D|--------4--2--------4--------2-----------2------------
A|-----2-----------2-----5--3-----------3---------------
E|--3-----------0---------------------------------------

Stave 2:

E|--------------------------
B|--------------------------
G|-----4-----9-----4--------
D|--5--4--5--9--5--4--5--2--
A|--5--2--5--7--5--2--5--2--
E|--3-----3-----3-----3--0--

							http://www.guitartabcreator.com
Instruments
{"strings":[[[".",".",".",".",".",".",".",".",".",".",".",".",".",".",".",".",".",".",".","."],[".",".",".",".",".",".",".",".",".",".",".",".",".",".",".",".",".",".",".","."],[".",".",".",".",".",".",".",".",".",".",4,2,".",".",4,"/",5,"\\",4,2],[".",".",4,2,".",".",4,".",".",2,".",".",".",2,".",".",".",".",".","."],[".",2,".",".",".",2,".",5,3,".",".",".",3,".",".",".",".",".",".","."],[3,".",".",".",0,".",".",".",".",".",".",".",".",".",".",".",".",".",".","."]],[[".",".",".",".",".",".",".","."],[".",".",".",".",".",".",".","."],[".",4,".",9,".",4,".","."],[5,4,5,9,5,4,5,2],[5,2,5,7,5,2,5,2],[3,".",3,".",3,".",3,0]]],"numberofstrings":6,"notes":["E","B","G","D","A","E","B"],"capo":0,"stringnotes":["E4","B3","G3","D3","A2","E2"],"comments":["Stave 1:","Stave 2:"],"timing":[["W","W","W","W","W","W","W","W","W","W","W","W","W","W","W",null,"W","W","W","W"],["W","W","W","W","W","W","W","W"]],"timingvisible":false,"tabcounter":8,"stave":1,"totalstaves":2,"instrument":"6guitar","selectedtuning":"6_standard","version":"13"}

Member for

3 months 1 week
Submitted by goosenotgeese on Tue, 2020-09-01 15:26