Smashing Pickups

Chords

01234567891011121314151617181920212223
E
B
G
D
A
E
B
0 1 2 3 4 5 6 7 8 9 10 11 12 13 14 15 16 17 18 19 20 21 22 23
(/) Slide Up  (\) Slide Down  (h) Hammer On  (p) Pull Off  (b) Bend (r) Release (v) Vibrato

Stave 1:

E|----------------------------
B|----------------------------
G|--11--9--12--7--5--9--7--7--
D|--0---0--0---0--0--0--0--0--
A|--0---0--0---0--0--0--0--0--
E|----------------------------

Stave 2:

E|-----------
B|-----------
G|--2--5--2--
D|--0--0--0--
A|--0--0--0--
E|-----------

							http://www.guitartabcreator.com
Instruments
{"strings":[[[".",".",".",".",".",".",".","."],[".",".",".",".",".",".",".","."],[11,9,12,7,5,9,7,7],[0,0,0,0,0,0,0,0],[0,0,0,0,0,0,0,0],[".",".",".",".",".",".",".","."]],[[".",".","."],[".",".","."],[2,5,2],[0,0,0],[0,0,0],[".",".","."]]],"numberofstrings":6,"notes":["E","B","G","D","A","E","B"],"capo":0,"stringnotes":["E4","B3","G3","D3","A2","E2"],"comments":["Stave 1:","Stave 2:"],"timing":[["W","W","W","W","W","W","W","W"],["W","W","W"]],"timingvisible":false,"tabcounter":3,"stave":1,"totalstaves":2,"instrument":"6guitar","selectedtuning":"6_standard","version":"13"}

Member for

3 months 1 week
Submitted by goosenotgeese on Tue, 2020-10-06 18:22