sike a del ick

Chords

01234567891011121314151617181920212223
E
B
G
D
A
E
B
0 1 2 3 4 5 6 7 8 9 10 11 12 13 14 15 16 17 18 19 20 21 22 23
(/) Slide Up  (\) Slide Down  (h) Hammer On  (p) Pull Off  (b) Bend (r) Release (v) Vibrato

Stave 1:

E|------------------------------------------
B|------------------------------------------
G|-------6--------------6-----6-----6-----6b
D|--6h7-----7--6-----4-----4-----4-----0----
A|----------------7-------------------------
E|------------------------------------------

Stave 2:

E|-----------------------------
B|-----------------------------
G|--6-----4--7-----6-----4--2--
D|--7--6--5--7-----7--6--5--0--
A|--0--7--5--5-----0--7--5--0--
E|-----0--------------0--------

Stave 3:

E|----------------------------------------------
B|----------------------------------------------
G|--6h7--9--7--6h7--9-----6h7--9--7--6h7--------
D|---------------------7------------------9--7--
A|----------------------------------------------
E|----------------------------------------------

							http://www.guitartabcreator.com
Instruments
{"strings":[[[".",".",".",".",".",".",".",".",".",".",".",".",".",".",".","."],[".",".",".",".",".",".",".",".",".",".",".",".",".",".",".","."],[".",".",".",6,".",".",".",".",6,".",6,".",6,".",6,"b"],[6,"h",7,".",7,6,".",4,".",4,".",4,".",0,".","."],[".",".",".",".",".",".",7,".",".",".",".",".",".",".",".","."],[".",".",".",".",".",".",".",".",".",".",".",".",".",".",".","."]],[[".",".",".",".","_",".",".",".","."],[".",".",".",".","_",".",".",".","."],[6,".",4,7,"_",6,".",4,2],[7,6,5,7,"_",7,6,5,0],[0,7,5,5,"_",0,7,5,0],[".",0,".",".","_",".",0,".","."]],[[".",".",".",".",".",".",".",".",".",".",".",".",".",".",".",".",".",".",".","."],[".",".",".",".",".",".",".",".",".",".",".",".",".",".",".",".",".",".",".","."],[6,"h",7,9,7,6,"h",7,9,".",6,"h",7,9,7,6,"h",7,".","."],[".",".",".",".",".",".",".",".",".",7,".",".",".",".",".",".",".",".",9,7],[".",".",".",".",".",".",".",".",".",".",".",".",".",".",".",".",".",".",".","."],[".",".",".",".",".",".",".",".",".",".",".",".",".",".",".",".",".",".",".","."]]],"numberofstrings":6,"notes":["E","B","G","D","A","E","B"],"capo":0,"stringnotes":["E4","B3","G3","D3","A2","E2"],"comments":["Stave 1:","Stave 2:","Stave 3:","Stave 4:"],"timing":[["W",null,"W","W","W","W","W","W","W","W","W","W","W","W","W"],["W","W","W","W",null,"W","W","W","W"],["W",null,"W","W","W","W",null,"W","W","W","W",null,"W","W","W","W",null,"W","W","W"],["W",null,"W","W","W","W",null,"W","W","W","W",null,"W","W","W","W",null,"W","W","W"]],"timingvisible":false,"tabcounter":0,"totalstaves":3,"instrument":"6guitar","selectedtuning":"6_standard","version":"13"}

Member for

2 months 4 weeks
Submitted by goosenotgeese on Wed, 2020-10-21 17:11