Seiko's March

Chords

01234567891011121314151617181920212223
E
B
G
D
A
E
B
0 1 2 3 4 5 6 7 8 9 10 11 12 13 14 15 16 17 18 19 20 21 22 23
(/) Slide Up  (\) Slide Down  (h) Hammer On  (p) Pull Off  (b) Bend (r) Release (v) Vibrato

Stave 1:

E|------------------------------------------------------------------
B|------------------------------------------------------------------
G|------------------------------------------------------------------
D|------------------------------------------------------------------
A|--10--------------10--------------10--------------10--------------
E|------11--10--11------11--10--11------11--10--11------11--10--11--

Stave 2:

E|--3-----------3-----------3-----------3-----------
B|-----4--3--4-----4--3--4-----4--3--4-----4--3--4--
G|--------------------------------------------------
D|--------------------------------------------------
A|--------------------------------------------------
E|--------------------------------------------------

Stave 3:

E|--------------------------------------------------------------------------
B|--------------------------------------------------------------------------
G|--------------------------------------------------------------------------
D|-----5-----8-----7-----5-----8-----7-----5-----8-----7-----5-----8-----7--
A|--------6-----5-----------6-----5-----------6-----5-----------6-----5-----
E|--3-----------------3-----------------3-----------------3-----------------

Stave 4:

E|--------------------------
B|--------------------------
G|--------7--8--------8--7--
D|--5--5--7--8--5--5--8--7--
A|--5--5--5--6--5--5--6--5--
E|--3--3--------3--3--------

Stave 5:

E|--------------------------------------------------
B|--------------------------------------------------
G|--------------7--7--7--7--8--8--8--8--5--5--5--5--
D|--5--5--5--5--7--7--7--7--8--8--8--8--5--5--5--5--
A|--5--5--5--5--5--5--5--5--6--6--6--6--3--3--3--3--
E|--3--3--3--3--------------------------------------

							http://www.guitartabcreator.com
Instruments
{"strings":[[[".",".",".",".",".",".",".",".",".",".",".",".",".",".",".","."],[".",".",".",".",".",".",".",".",".",".",".",".",".",".",".","."],[".",".",".",".",".",".",".",".",".",".",".",".",".",".",".","."],[".",".",".",".",".",".",".",".",".",".",".",".",".",".",".","."],[10,".",".",".",10,".",".",".",10,".",".",".",10,".",".","."],[".",11,10,11,".",11,10,11,".",11,10,11,".",11,10,11]],[[3,".",".",".",3,".",".",".",3,".",".",".",3,".",".","."],[".",4,3,4,".",4,3,4,".",4,3,4,".",4,3,4],[".",".",".",".",".",".",".",".",".",".",".",".",".",".",".","."],[".",".",".",".",".",".",".",".",".",".",".",".",".",".",".","."],[".",".",".",".",".",".",".",".",".",".",".",".",".",".",".","."],[".",".",".",".",".",".",".",".",".",".",".",".",".",".",".","."]],[[".",".",".",".",".",".",".",".",".",".",".",".",".",".",".",".",".",".",".",".",".",".",".","."],[".",".",".",".",".",".",".",".",".",".",".",".",".",".",".",".",".",".",".",".",".",".",".","."],[".",".",".",".",".",".",".",".",".",".",".",".",".",".",".",".",".",".",".",".",".",".",".","."],[".",5,".",8,".",7,".",5,".",8,".",7,".",5,".",8,".",7,".",5,".",8,".",7],[".",".",6,".",5,".",".",".",6,".",5,".",".",".",6,".",5,".",".",".",6,".",5,"."],[3,".",".",".",".",".",3,".",".",".",".",".",3,".",".",".",".",".",3,".",".",".",".","."]],[[".",".",".",".",".",".",".","."],[".",".",".",".",".",".",".","."],[".",".",7,8,".",".",8,7],[5,5,7,8,5,5,8,7],[5,5,5,6,5,5,6,5],[3,3,".",".",3,3,".","."]],[[".",".",".",".",".",".",".",".",".",".",".",".",".",".",".","."],[".",".",".",".",".",".",".",".",".",".",".",".",".",".",".","."],[".",".",".",".",7,7,7,7,8,8,8,8,5,5,5,5],[5,5,5,5,7,7,7,7,8,8,8,8,5,5,5,5],[5,5,5,5,5,5,5,5,6,6,6,6,3,3,3,3],[3,3,3,3,".",".",".",".",".",".",".",".",".",".",".","."]]],"numberofstrings":6,"notes":["E","B","G","D","A","E","B"],"capo":0,"stringnotes":["E4","B3","G3","D3","A2","E2"],"comments":["Stave 1:","Stave 2:","Stave 3:","Stave 4:","Stave 5:"],"timing":[["W","W","W","W","W","W","W","W","W","W","W","W","W","W","W","W"],["W","W","W","W","W","W","W","W","W","W","W","W","W","W","W","W"],["W","W","W","W","W","W","W","W","W","W","W","W","W","W","W","W","W","W","W","W","W","W","W","W"],["W","W","W","W","W","W","W","W"],["W","W","W","W","W","W","W","W","W","W","W","W","W","W","W","W"]],"timingvisible":false,"tabcounter":16,"stave":4,"totalstaves":5,"instrument":"6guitar","selectedtuning":"6_standard","version":"13"}

Member for

2 months 4 weeks
Submitted by goosenotgeese on Wed, 2020-09-02 11:43