Payday

01234567891011121314151617181920212223
E
B
G
D
A
E
B
0 1 2 3 4 5 6 7 8 9 10 11 12 13 14 15 16 17 18 19 20 21 22 23
(/) Slide Up  (\) Slide Down  (h) Hammer On  (p) Pull Off  (b) Bend (r) Release (v) Vibrato

Stave 1:

E|-----------------------------------------------
B|-----------------------------------------------
G|-----------------------------------------------
D|-----------5--7--5-----------------------------
A|-----7--9-----------6--7-----6--7--6--7--6--7--
E|--0--------------------------------------------

Stave 2:

E|------------------------------------------------
B|------------------------------------------------
G|---------------7--------------------------------
D|-----11--9--7-----7-----9--------9-----9-----9--
A|--9------------------9--------9-----9-----9-----
E|------------------------------------------------

Stave 3:

E|-----------
B|-----------
G|--9--6--7--
D|--9--6--7--
A|--7--4--5--
E|-----------

Stave 4:

E|--------2--
B|-----2--3--
G|--1--2--2--
D|--2--2-----
A|--2--------
E|--0--------

							http://www.guitartabcreator.com
Chords

Instruments
{"strings":[[[".",".",".",".",".",".",".",".","_",".",".",".",".",".","."],[".",".",".",".",".",".",".",".","_",".",".",".",".",".","."],[".",".",".",".",".",".",".",".","_",".",".",".",".",".","."],[".",".",".",5,7,5,".",".","_",".",".",".",".",".","."],[".",7,9,".",".",".",6,7,"_",6,7,6,7,6,7],[0,".",".",".",".",".",".",".","_",".",".",".",".",".","."]],[[".",".",".",".",".",".",".",".","_",".",".",".",".",".","."],[".",".",".",".",".",".",".",".","_",".",".",".",".",".","."],[".",".",".",".",7,".",".",".","_",".",".",".",".",".","."],[".",11,9,7,".",7,".",9,"_",".",9,".",9,".",9],[9,".",".",".",".",".",9,".","_",9,".",9,".",9,"."],[".",".",".",".",".",".",".",".","_",".",".",".",".",".","."]],[[".",".","."],[".",".","."],[9,6,7],[9,6,7],[7,4,5],[".",".","."]],[[".",".",2],[".",2,3],[1,2,2],[2,2,"."],[2,".","."],[0,".","."]]],"numberofstrings":6,"notes":["E","B","G","D","A","E","B"],"capo":0,"stringnotes":["E4","B3","G3","D3","A2","E2"],"comments":["Stave 1:","Stave 2:","Stave 3:","Stave 4:"],"timing":[["W","W","W","W","W","W","W","W",null,"W","W","W","W","W","W"],["W","W","W","W","W","W","W","W",null,"W","W","W","W","W","W"],["W","W","W"],["W","W","W","W"]],"timingvisible":false,"tabcounter":2,"stave":3,"totalstaves":4,"instrument":"6guitar","selectedtuning":"6_standard","version":"13"}

Member for

6 months 1 week
Submitted by goosenotgeese on Thu, 2020-12-10 09:37