OhToo

Chords

01234567891011121314151617181920212223
E
B
G
D
A
E
B
0 1 2 3 4 5 6 7 8 9 10 11 12 13 14 15 16 17 18 19 20 21 22 23
(/) Slide Up  (\) Slide Down  (h) Hammer On  (p) Pull Off  (b) Bend (r) Release (v) Vibrato

Stave 1:

E|--------------------------------------------------
B|--------------------------------------------------
G|--------------------------------------------------
D|--2--4--6-----2--4--6-----2--4--6-----2--4--6--6--
A|--0--0--0-----0--0--0-----0--0--0-----0--0--0--4--
E|--------------------------------------------------

Stave 2:

E|--------------------------------------------------
B|--------------------------------------------------
G|--------------------------------------------------
D|--------2--4--6--4--2-----6--4--2-----6--4--9--2--
A|--4--6-----------------4--4--2--0--4--4--2--7--0--
E|-----------------------------------2--------------

Stave 3:

E|-----------------------------------------------------------------------------
B|-----------------------------------------------------------------------------
G|-----------------------------------------------------------------------------
D|--------------------------------------------------2--2--2--2--2--2--2--2--4--
A|--4--4--4--4--4--4--4--4--6--6--6--6--6--6--6--6-----------------------------
E|-----------------------------------------------------------------------------

							http://www.guitartabcreator.com
Instruments
{"strings":[[[".",".",".","_",".",".",".","_",".",".",".","_",".",".",".","."],[".",".",".","_",".",".",".","_",".",".",".","_",".",".",".","."],[".",".",".","_",".",".",".","_",".",".",".","_",".",".",".","."],[2,4,6,"_",2,4,6,"_",2,4,6,"_",2,4,6,6],[0,0,0,"_",0,0,0,"_",0,0,0,"_",0,0,0,4],[".",".",".","_",".",".",".","_",".",".",".","_",".",".",".","."]],[[".",".",".",".",".",".",".",".",".",".",".",".",".",".",".","."],[".",".",".",".",".",".",".",".",".",".",".",".",".",".",".","."],[".",".",".",".",".",".",".",".",".",".",".",".",".",".",".","."],[".",".",2,4,6,4,2,".",6,4,2,".",6,4,9,2],[4,6,".",".",".",".",".",4,4,2,0,4,4,2,7,0],[".",".",".",".",".",".",".",".",".",".",".",2,".",".",".","."]],[[".",".",".",".",".",".",".",".",".",".",".",".",".",".",".",".",".",".",".",".",".",".",".",".","."],[".",".",".",".",".",".",".",".",".",".",".",".",".",".",".",".",".",".",".",".",".",".",".",".","."],[".",".",".",".",".",".",".",".",".",".",".",".",".",".",".",".",".",".",".",".",".",".",".",".","."],[".",".",".",".",".",".",".",".",".",".",".",".",".",".",".",".",2,2,2,2,2,2,2,2,4],[4,4,4,4,4,4,4,4,6,6,6,6,6,6,6,6,".",".",".",".",".",".",".",".","."],[".",".",".",".",".",".",".",".",".",".",".",".",".",".",".",".",".",".",".",".",".",".",".",".","."]]],"numberofstrings":6,"notes":["E","B","G","D","A","E","B"],"capo":0,"stringnotes":["E4","B3","G3","D3","A2","E2"],"comments":["Stave 1:","Stave 2:","Stave 3:"],"timing":[["W","W","W",null,"W","W","W",null,"W","W","W",null,"W","W","W","W"],["W","W","W","W","W","W","W","W","W","W","W","W","W","W","W","W","W"],["W","W","W","W","W","W","W","W","W","W","W","W","W","W","W","W","W","W","W","W","W","W","W","W","W"]],"timingvisible":false,"tabcounter":16,"stave":1,"totalstaves":3,"instrument":"6guitar","selectedtuning":"6_standard","version":"13"}

Member for

3 months 1 week
Submitted by goosenotgeese on Fri, 2020-10-30 11:05