midwest emo

01234567891011121314151617181920212223
E
B
G
D
A
E
B
0 1 2 3 4 5 6 7 8 9 10 11 12 13 14 15 16 17 18 19 20 21 22 23
(/) Slide Up  (\) Slide Down  (h) Hammer On  (p) Pull Off  (b) Bend (r) Release (v) Vibrato

Stave 1:

E|------------------------------------------------------------
B|------------------------------------------------------------
G|-------------------0-----0----------------------2-----2-----
D|---------0--4/5\4-----4-----4---------0--4/5/4-----4-----4--
A|--0h2p0------------------------0h2p0------------------------
E|------------------------------------------------------------

Stave 2:

E|---------------------------------------------------------
B|---------------------------------------------------------
G|-------------------0-----0-------------------------------
D|---------0--4/5\4-----4-----4---------0--4/5\4-----------
A|--0h2p0------------------------0h2p0---------------------
E|------------------------------------------------2--3--5--

							http://www.guitartabcreator.com
Chords

Instruments
{"strings":[[[".",".",".",".",".",".",".",".",".",".",".",".",".",".",".",".",".",".",".",".",".",".",".",".",".",".",".",".",".","."],[".",".",".",".",".",".",".",".",".",".",".",".",".",".",".",".",".",".",".",".",".",".",".",".",".",".",".",".",".","."],[".",".",".",".",".",".",".",".",".",".",".",0,".",0,".",".",".",".",".",".",".",".",".",".",".",".",2,".",2,"."],[".",".",".",".",".",0,4,"/",5,"\\",4,".",4,".",4,".",".",".",".",".",0,4,"/",5,"/",4,".",4,".",4],[0,"h",2,"p",0,".",".",".",".",".",".",".",".",".",".",0,"h",2,"p",0,".",".",".",".",".",".",".",".",".","."],[".",".",".",".",".",".",".",".",".",".",".",".",".",".",".",".",".",".",".",".",".",".",".",".",".",".",".",".",".","."]],[[".",".",".",".",".",".",".",".",".",".",".",".",".",".",".",".",".",".",".",".",".",".",".",".",".",".",".",".","."],[".",".",".",".",".",".",".",".",".",".",".",".",".",".",".",".",".",".",".",".",".",".",".",".",".",".",".",".","."],[".",".",".",".",".",".",".",".",".",".",".",0,".",0,".",".",".",".",".",".",".",".",".",".",".",".",".",".","."],[".",".",".",".",".",0,4,"/",5,"\\",4,".",4,".",4,".",".",".",".",".",0,4,"/",5,"\\",4,".",".","."],[0,"h",2,"p",0,".",".",".",".",".",".",".",".",".",".",0,"h",2,"p",0,".",".",".",".",".",".",".",".","."],[".",".",".",".",".",".",".",".",".",".",".",".",".",".",".",".",".",".",".",".",".",".",".",".",".",".",2,3,5]]],"numberofstrings":6,"notes":["E","B","G","D","A","E","B"],"capo":0,"stringnotes":["E4","B3","G3","D3","A2","E2"],"comments":["Stave 1:","Stave 2:"],"timing":[["W",null,"W",null,"W","W","W",null,"W",null,"W","W","W","W","W","W",null,"W",null,"W","W","W",null,"W",null,"W","W","W","W","W"],["W",null,"W",null,"W","W","W","W","W",null,"W","W","W","W","W","W",null,"W",null,"W","W","W",null,"W",null,"W","W","W","W"]],"timingvisible":false,"tabcounter":29,"stave":1,"totalstaves":2,"instrument":"6guitar","selectedtuning":"6_standard","version":"13"}

Member for

6 months 1 week
Submitted by goosenotgeese on Thu, 2021-01-07 19:21