Home Work? Or Just Working From Home....

Chords

01234567891011121314151617181920212223
E
B
G
D
A
E
B
0 1 2 3 4 5 6 7 8 9 10 11 12 13 14 15 16 17 18 19 20 21 22 23
(/) Slide Up  (\) Slide Down  (h) Hammer On  (p) Pull Off  (b) Bend (r) Release (v) Vibrato

Stave 1:

E|---------------------------------------------------------
B|---------------------------------------------------------
G|---------------------------------------------------------
D|----------3-----3--5/7/5--3------------------3--3--3--0--
A|-----3h5-----5---------------5--0--3/5/3--0--3--3--3--0--
D|--0------------------------------------------3--3--3--0--

Stave 2:

E|-------------------------------------------------------
B|-------------------------------------------------------
G|-------------------------------------------------------
D|--5--5--5--7--7--7--5/7/5--3---------------3--3--3--0--
A|--3--3--3--5--5--5------------0--3/5/3--0--3--3--3--0--
D|--0--0--0--0--0--0-------------------------3--3--3--0--

Stave 3:

E|------------------------------------------------------------
B|------------------------------------------------------------
G|------------------------------------------------------------
D|--3--3--3--5--5--5--1--1--1--0------------------3--3--3--0--
A|--3--3--3--5--5--5--1--1--1--0-----0--3/5/3--0--3--3--3--0--
D|--3--3--3--5--5--5--1--1--1--0------------------3--3--3--0--

							http://www.guitartabcreator.com
Instruments
{"strings":[[[".",".",".",".",".",".",".",".",".",".",".",".",".",".",".",".",".",".",".",".",".",".",".",".","."],[".",".",".",".",".",".",".",".",".",".",".",".",".",".",".",".",".",".",".",".",".",".",".",".","."],[".",".",".",".",".",".",".",".",".",".",".",".",".",".",".",".",".",".",".",".",".",".",".",".","."],[".",".",".",".",3,".",3,5,"/",7,"/",5,3,".",".",".",".",".",".",".",".",3,3,3,0],[".",3,"h",5,".",5,".",".",".",".",".",".",".",5,0,3,"/",5,"/",3,0,3,3,3,0],[0,".",".",".",".",".",".",".",".",".",".",".",".",".",".",".",".",".",".",".",".",3,3,3,0]],[[".",".",".",".",".",".",".",".",".",".",".",".",".",".",".",".",".",".",".",".",".",".","."],[".",".",".",".",".",".",".",".",".",".",".",".",".",".",".",".",".",".",".",".",".",".","."],[".",".",".",".",".",".",".",".",".",".",".",".",".",".",".",".",".",".",".",".",".",".","."],[5,5,5,7,7,7,5,"/",7,"/",5,3,".",".",".",".",".",".",".",3,3,3,0],[3,3,3,5,5,5,".",".",".",".",".",".",0,3,"/",5,"/",3,0,3,3,3,0],[0,0,0,0,0,0,".",".",".",".",".",".",".",".",".",".",".",".",".",3,3,3,0]],[[".",".",".",".",".",".",".",".",".",".","_",".",".",".",".",".",".",".",".",".",".","."],[".",".",".",".",".",".",".",".",".",".","_",".",".",".",".",".",".",".",".",".",".","."],[".",".",".",".",".",".",".",".",".",".","_",".",".",".",".",".",".",".",".",".",".","."],[3,3,3,5,5,5,1,1,1,0,"_",".",".",".",".",".",".",".",3,3,3,0],[3,3,3,5,5,5,1,1,1,0,"_",0,3,"/",5,"/",3,0,3,3,3,0],[3,3,3,5,5,5,1,1,1,0,"_",".",".",".",".",".",".",".",3,3,3,0]]],"numberofstrings":6,"notes":["E","B","G","D","A","D","B"],"capo":0,"stringnotes":["E4","B3","G3","D3","A2","D2"],"comments":["Stave 1:","Stave 2:","Stave 3:"],"timing":[["W","W",null,"W","W","W","W","W",null,"W",null,"W","W","W","W","W",null,"W",null,"W","W","W","W","W","W"],["W","W","W","W","W","W","W",null,"W",null,"W","W","W","W",null,"W",null,"W","W","W","W","W","W"],["W","W","W","W","W","W","W","W","W","W",null,"W","W",null,"W",null,"W","W","W","W","W","W"]],"timingvisible":false,"tabcounter":22,"stave":2,"totalstaves":3,"instrument":"6guitar","selectedtuning":"6_standard","version":"13"}

Member for

4 weeks 1 day
Submitted by goosenotgeese on Tue, 2020-09-15 10:14